Prljavo Kazaliste - Kise Jesenje

Transkripcija: Ivan Varnju
Poslao       : Aleksej Kisjuhas  (paulalex@EUnet.yu)
Home         : http://2akordi.net


A                 D                     E
Nocas mladi mesec je, dobra vecer dame sve
                 A
spustam se u barove

Dolje neki klinac na klaviru nasu pjesmu svira
sto me grozno zivcira

Mazni glas me pita imas li vilu iznad Zagreba
ili auto s tamnim staklima

E                  A
Hej curo, seceru, nemam ja za veceru
E                  A
za malu vodku rakiju
E               A
Hej curo seceru ja sam ptica nebeska
E                 A
I to je moja sudbina

D          E          A                  D
Kroz moje prazne dzepove vjetrovi mi prolaze
       E   A        D   E
A kroz cipele kise jesenje
A   D   E    E   A   D
O o o o o    o o o o o ...

Nocas mladi mesec...
Dolje neki klinac...

Hej curo, seceru, nemam ja za veceru
za malu vodku rakiju
Hej curo seceru ja sam ptica nebeska
I to je moja sudbina

Kroz moje...

***VERZIJA 2***
Transkripcija: DrS   (drs@galeb.etf.bg.ac.yu)
Poslao       : Vlado (vlado.t@hotmail.com)
Home         : http://galeb.etf.bg.ac.yu/~drs/muzika/

[A]Nocas mladi mjesec [D]sja,
dobro vece dame [E]sve,
spustam se u baro[A]ve.

Neki klinac,
nasu pjesmu svira,
i to me strasno zivcira,

Ej curo seceru,
nemam ja za veceru,
za malu votku rakiju,
Kroz moje prazne dzepove,
vjetrovi mi prolaze,
a kroz cipele, kise jesenje
o o o o o

***VERZIJA 3***
Transkripcija: Sheriff (jasmin.medved@vz.htnet.hr)
Album        : Lupi petama (1993)
Home         : prljavokazaliste1977.netfirms.com


UVOD:
    A    D    E
e|----------------------------------------|
B|----------------------------------------|
D|-------7-7------------------------------|
G|--7-7--7-7--2-2---7-7--7--7--2--7--x-x--|
A|--7-7--5-5--2-2---7-7--7--7--2--7--x-x--|
E|--5-5-------0-0---5-5--5--5--0--5--x-x--|

STROFA:
A                 D
Nocas mladi mesec je,
                  E
Dobra vecer dame sve
                    A E A
Spustam se u barove

Dolje neki klinac
Na klaviru nasu pjesmu svira
Sto me grozno zivcira

Masni glas me pita
Imas li vilu iznad Zagreba
Il' auto s tamnim staklima

E                  A
Hej curo, seceru, nemam ja za veceru
E                  A
Za malu vodku rakiju
E               A
Hej curo seceru ja sam ptica nebeska
E                   D C#
I to je moja sudbina

REFREN:
A          E          D                      D
Kroz moje prazne dzepove vjetrovi mi prolaze
A      E    D              D
A kroz cipele kise jesenje

         A             E          A          E
e|-19brbrbrbr--| Kise jesenje, o o o o o, o o o o o, o o o o o
B|-------------|
D|-------------|
G|-------------|
A|-------------|
E|-------------|

Hej curo, seceru, nemam ja za veceru
Za malu vodku rakiju
Hej curo seceru ja sam ptica nebeska
I kao takav uvijek cu

SOLO (klavir): A
               E
               A
               D C#


SOLO (do kraja):

e|--14h16~~~~~~~~~~~~--------16b-16~~~~~~~~~~~~-------16b-16~~~~~~~~~~~~-----|
B|---------------------------------------------------------------------------|
D|---------------------------------------------------------------------------|
G|---------------------------------------------------------------------------|
A|---------------------------------------------------------------------------|
E|---------------------------------------------------------------------------|
    Kise jesenje, o o o o o, kise jesenje, o o o o o, kise jesenje, o o o o o

e|--16-19b~~~~~~~~~~~-----19-21b~~~~~~~~~~~~---19-16~~~~~~~~~~~~----16br-----|
B|---------------------------------------------------------------------------|
D|---------------------------------------------------------------------------|
G|---------------------------------------------------------------------------|
A|---------------------------------------------------------------------------|
E|---------------------------------------------------------------------------|
    o o o o o, o o o o o, o o o o o, o o o o o, o o o o o, o o o o o

e|--12~~~~~~~~~~~~--------14~~~~~~~--16~~~~~~~~~~~~-------|
B|--------------------------------------------------------|
D|--------------------------------------------------------|
G|--------------------------------------------------------|
A|--------------------------------------------------------|
E|--------------------------------------------------------|
    o o o o o, o o o o o, o o o o o, o o o o o, o o o o o

e|--16b-16~~--17-19b~~~~--17-19b~~--16-16-21b~~--16-19-21brbrbrbrbrbr--...--|
B|--------------------------------------------------------------------------|
D|--------------------------------------------------------------------------|
G|--------------------------------------------------------------------------|
A|--------------------------------------------------------------------------|
E|--------------------------------------------------------------------------|

KRAJ