Rambo Amadeus - Otis'o Je Svak Ko Valja

Transkripcija: Ivan Vasic (ivasic@cent.co.yu)
Home         : http://www.tablature.co.yu



Uvod:
Gitara 1: Fism Cis Fism, A E A, Hm Fism D Cis Fism

Gitara 2: uvodni solo
E||----------------------|-----------------|----------------------|
B||--------------7-------|-----------------|--------------7-------|
G||--6h7p6p5h-6----------|--7---6----------|--6h7p6p5h-6----------|
D||----------------------|-----------------|----------------------|
A||----------------------|-----------------|----------------------|
E||----------------------|-----------------|----------------------|
                                                         
-----------------|-------------------------|----------------------|
-----------------|--------------10---------|--9---7-5-------------|
--4---2----------|--6h7p6p5h-6-------------|----------7-6---------|
-----------------|-------------------------|----------------------|
-----------------|-------------------------|----------------------|
-----------------|-------------------------|----------------------|
                         
-----------------------||
--------------------7--||
--6--5--5\-6-----6-----||
--------------4--------||
-----------------------||
-----------------------||
Toliko sto se uvoda tice.


Strofice idu isto kao i akordi za uvod, znaci :

Fism          Cis        Fism
Zasviraj bluz,    cigane mladi
A           E        A
lake zabave,  ?????? ?????
Hm                        Fism
Objasni da veceras, Rambo nije
      D         Cis
bas u najboljem raspolozenju.

Otis'o je svak' ko valja
neki vani a neki ka nebu
ostala je samo fukara i raja
i mi s njima na bjelome (lebu) - 
nisam siguran da kaze 'lebu' ...


Sada ide onaj psihodelicni deo '...srao sam na proplanku...'
tu ide bas i neka 'solaza' (citaj: zajebancija)...

Sto se tice glavne solaze nisam imao vremena da je skinem. 
Ako nekome mnogo treba neka me kontaktira pa cu da 
odradim i to .......