Riblja Corba - Alo

Transkripcija: Slash (mvindis@hinet.hr.zg)


Uvodni riff C#
|-------------------------------|
|-------------------------------|
|-------------------------------|
|-------------------------------|
|---------9--10------10--9------|
|-9-9-12---------9-9--------12--|

Verse riff C#
|------------------------------------|
|------------------------------------|
|------------------------------------|
|------------------------------------|
|---------9--10------10-10-9-9-------|
|-9-9-12---------9-9-----------12-12-|

U kupeu citao sam novine
Voz je napustao stanicu
A vetar salje pozdrav iz domovine
I konacno sam presao granicu

H            C#
Siroki auditorium
Peva oratorijum
Ja iz dalekih predela
Posmatram tuda nedela

A   H              riff C#
Alo prepoznajes mi glas
Alo kako je dole kod vas
Alo ko vas cuva od zla
Alo nedostajem li ja

Pevao sam na trgu republike
I svi su me tapsali po ramenu
Bilo je i puno publike
Al brzo su im pronasli zamjenu

kraj C#