Riblja Corba - Amsterdam

Transkripcija: Milos Maksic
Poslao       : Anthony


Solo:
E--------------------------------- ----------------------
B--12--14-15-14-12-------12------- ----------------------
G------------------12-14----14-12- -11-------------------
D--------------------------------- ----14-12-11----11-12-
A--------------------------------- -------------14-------
E--------------------------------- ----------------------

E--------------------------------- ----------------
B--12--14-15-14-12-------12------- ----------------
G------------------12-14----14-12- -11-------------
D--------------------------------- ----14-12-11----
A--------------------------------- -------------14-
E--------------------------------- ----------------

Hm         A       Hm   A
Neko mi je ukrao biciklo
Hm           A          Hm    A
jer ga nisam dobro vezo lancom
Hm         A          Hm   A
na biciklo ovde sam naviko
Hm          A        Hm     A
da se ne bi osecao strancom.

Kucici po ulicama kaku
cipelu sam umazo govancom
hoce da me grizaju u mraku
da se ne bi osecao strancom

Ref:

D                   A
U kafanu pusu marihuanu
D                      A
ili neku drogu piju s' nogu
D                      A
te sam noci spavao pod sankom
D                   E
da se ne bi osecao strancom.


Hm A    Hm  A Hm
Am_ster_dam...

Tekst:
Neko mi je ukarao biciklo
jer ga nisam dobro vez'o lancom
na biciklo ovde sam navik'o
da se ne bi osecao strancom.

Kucici po ulicama kaku
cipelu sam umaz'o govancom
hoce da me grizaju u mraku
da se ne bi osecao strancom.

 Ref:
 U kafanu pusu marihuanu
 ili neku drogu piju s' nogu
 te sam noci spavao pod sankom
 da se ne bi osecao strancom

Ovde uopste nema Holandezi
sve Arapi, crnci i Kinezi
tu ljudovi uopste ne spavaju
samo picu i zajebavaju.

Tu kurave u izlozi sedu
cutu, pusu prolaznike gledu,
sedu gole ili u neglize
musterije da im pridju blize.

Moju malu trazim po kanalu
gde se vodom setaju sa brodom
ceo dan sam plivao za camcom
da se ne bi osecao strancom.

Svuda guzva, frka i krkljanac
nemas pojma ko je ovde stranac
postao sam jedan Amsterdamac
da se ne bi oseco ko stranac.

In the city of Amsterdam
you can find a lot of fun,
The Dam Square and Latice Plain
this is something I can't explain,
there is a crowd, crazy and laugh
in a distance I hear a drum
calling me to come to Amsterdam

Amsterdam... Amsterdam...