Riblja Corba - Baba Jula

Transkripcija: VedranV


Strofa : F#m A E Hm

Za refren nisam bas jako siguran :

F#m A     Hm        A                 E
Ali ko to tamo peva leva, leva, leva, leva
F#m A     Hm       A                 Hm                   
Do  haosa i rasula sve nas vodi baba jula
...
...
Hm    E
Baba jula

Solo >>>
            F#m            A       E        Hm
|-----------------------------------------------------------|
|-10p9----------12s14--12--10--14--12----------10-10p9------|
|------11-9-11-----------------------------------------11-9-|
|-----------------------------------------------------------|
|-----------------------------------------------------------|
|-----------------------------------------------------------|

  F#m             A       E       Hm               Hm      F#
|------------------------------------------------------------|
|-----12s14--12--10--14--12-----------10-10p9---------10p9---|
|-11------------------------------------------11-9-11------11|
|------------------------------------------------------------|
|------------------------------------------------------------|
|------------------------------------------------------------|

Kraj :
Hm
Baba jula
Hm   E
Baba jula
A    F#m
Baba jula
E    F#m
Baba jula

Nemojte mi nista zamjerit ako je ovo i totalno krivo!!!

***VERZIJA 2***
Transkripcija: Toma 3:16 (toma3-16@wanadoo.fr)


INTRO: F#m A E Bm
       ------------------------------------
       ------------------------------------
       ---6--7^6^4^2^4-6-4---4--6-2--------
       4-------------------7^-------6-4-2--
       ------------------------------------
       ------------------------------------

       ----------------------------------------------------
       ----------------------------------------------------
       ---6--7^6^4^2^4-6-4---4--6-2------------------------
       4-------------------7^-------6-4-2-4--7^6^2^4--4----
       ----------------------------------------------------
       ----------------------------------------------------

F#m           A
Dok po zemlji svasta rade, 
E       Bm
na TV-u limunade:
 F#m           A 
"Bolje zivot","srecni ljudi",
E         Bm
zato i ti srecan budi.

F#m          A
Kupim novine sveze izdanje,
    E        Bm
kad'ono opet isto sranje.
F#m          A
Napadi ne jenjavaju,
E           Bm
jedni druge skenjavaju


F#m  A     Bm    
A li ko to tamo peva:
A                 E
leva, leva, leva, leva !
F#m   A      Bm
do haosa i rasula
A                 Bm
sve vas vodi baba jula.

F#m   A    Bm
Ko to tamo kurcu svira ?
A                E
U toku je bal vampira.
F#m   A     Bm
Predvodi ih sasvim trula,
A              Bm         E
cvetokosa baba jula, baba jula.

F#m A E Bm
       ------------------------------------
       ------------------------------------
       ---6--7^6^4^2^4-6-4---4--6-2--------
       4-------------------7^-------6-4-2--
       ------------------------------------
       ------------------------------------

       ----------------------------------------------------
       ----------------------------------------------------
       ---6--7^6^4^2^4-6-4---4--6-2------------------------
       4-------------------7^-------6-4-2-4--7^6^2^4--4----
       ----------------------------------------------------
       ----------------------------------------------------

F#m         A
Jos uvek se narod seca
E         B#m
ustase iz Kuce cveca,
F#m       A
ali on je cista nula,
E          B#m
najjaca je baba Jula.

F#m      A
Isao sam do Dedinja,
E        B#m
tamo ima mnogo svinja.
F#m       A
Crveno se celo krdo
E         B#m
na Julino seli brdo.

F#m  A     Bm    
A li ko to tamo peva:
A                 E
leva, leva, leva, leva !
F#m   A      Bm
do haosa i rasula
A                 Bm
sve vas vodi baba jula.

F#m   A    Bm
Ko to tamo kurcu svira ?
A                E
U toku je bal vampira.
F#m   A     Bm
Predvodi ih sasvim trula,
A              Bm         E
cvetokosa baba jula, baba jula.

Guitar Solo:
9^7^5^----9-7^5-7^9^7~--9-9^7^5^----9-7^5-7^9^7~-5-5^4^2^0^2-5-4-0-2--2~
------9^7----------------------9^7--------------------------------------
------------------------------------------------------------------------
------------------------------------------------------------------------
------------------------------------------------------------------------
------------------------------------------------------------------------

F#m  A     Bm    
A li ko to tamo peva:
A                 E
leva, leva, leva, leva !
F#m   A      Bm
do haosa i rasula
A                 Bm
sve vas vodi baba jula.

F#m   A    Bm
Ko to tamo kurcu svira ?
A                E
U toku je bal vampira.
F#m   A     Bm
Predvodi ih sasvim trula,
A              Bm
cvetokosa baba jula,
     G#        F#m  E    F#m
baba jula baba jula baba jula.