Riblja Corba - Boze

Transkripcija: Toma 3:16 (toma3-16@wanadoo.fr & toma3_16@msn.com)


C   G   C   G   A#  F   A#  F  
-------------------------------
-------------------------------
-------------------------------     x2
6-6-5---6-6-5---4-4-3---4-4-3--
-------------------------------
-------------------------------

---------------------
---------------------
---------------------
6~-8-6-5~--4~-6-4-3--
------------------3--
------------------1--

C            G           
 Kisni dan u predgradu 
 A#        F
 i  depresija
C         G
 cekamo u beznadu 
    F
 da stigne mesija.

C         G
 Nas drzi samo nada 
 A#        F
 ove kisne noci
C         G
 cekamo Godoa
 F
 Godo nece doci.

RIFF  F G G#                  F                   F G G#
            S'neba pada krv i znoj svuda smrt i nespokoj.
                               A#
            Gde si sada, brate moj?

-----------
-------11~-
-10-12-----
-----------
-----------
-----------
          
RIFF  C     G        
      Boze, molim te,
      A#           F
      daj nam neki znak.
      C     G    
      Boze, molim te,
      A#       F
      okolo je mrak.
      C     G        
      Boze, molim te,
      A#           F
      daj nam neki znak.
      C     G    
      Boze, molim te,
      A#       F
      okolo je mrak.

---------------------------
----------------------8----
---6---7------6---7--------  x2
-5---5---5--5---5---5---5--
---------------------------
---------------------------
     
 C        G
 Mokri do gole koze 
   A#         F
 u blatu klecimo
C          G
 Ej, dodi, ako moze
 F
 da se lecimo.

 C           G           
 Kisni dan u predgradu 
 A#        F
 i  depresija
C         G
 cekamo u beznadu 
    F
 da stigne mesija.

RIFF  F G G#                  F                   F G G#
            S'neba pada krv i znoj svuda smrt i nespokoj.
                               A#
            Gde si sada, brate moj?
            
            
-----------
-------11~-
-10-12-----
-----------
-----------
-----------
          
RIFF  C     G        
      Boze, molim te,
      A#           F
      daj nam neki znak.
      C     G    
      Boze, molim te,
      A#       F
      okolo je mrak.
      C     G        
      Boze, molim te,
      A#           F
      daj nam neki znak.
      C     G    
      Boze, molim te,
      A#       F
      okolo je mrak.

---------------------------
----------------------8----
---6---7------6---7--------  x2
-5---5---5--5---5---5---5--
---------------------------
---------------------------