Riblja Corba - Decu Ti Necu Oprostiti

Transkripcija: Stojan Babic - Sk8@nisky.net


^^ =full bend
P  =pull off
^  =half bend
/  =slide up
\  =slide down
b  =bend (nategnuti do navedenog broja)
r  =release
~  =vibriranje dodajite sami
( )=lagano okinuti zicu 


I prvi dio sola
e|-----------------------------------------------------------------------------------
B|---------14h15-----------------17^^r^^--15^^r--12----------------------------------
G|-----16---------16^^r--16h19-------------------------------------------------------
D|-16--------------------------------------------------14^^rp12--14^^r^^-------------
A|-----------------------------------------------------------------------------------
E|-----------------------------------------------------------------------------------

II drugi dio sola
e|-----------------------------------------------------------------------------------
B|----19--17--15--14--------------10-------------------------------------------------
G|--------------------14/16-------9^^rp7--------7------------------------------------
D|-16------------------------16-----------9--7-----7--7/9--------------------------9\
A|---------------------------------------------------------9\7--5--7--7\5--0---------
E|----------------------------------------------------------------------------5/7----

III treci dio sola
1|---------------12------------------------------------------------------------------
2|-17^^r--12h15------15^^-15^^r--------17^^--20^^--17^^r--15--17--15^^---------------
3|-------------------------------16--------------------------------------16-----16---
4|----------------------------------16---------------------------------------16------
5|-----------------------------------------------------------------------------------
6|-----------------------------------------------------------------------------------

  ---------------------------------------|
  ---------------------------------------|
  ---------------------------------------|
  --14^^rp12-----------16*pitch-harmonic-|
  ------------14--12---------------------|
  ---------------------------------------|

IV Cetvrti dio sola
e|----------------------------------------------8-----------------------------------
B|-----8--10p8------8-----------8--10p8------8-----10h13p10--11--11--10-------------
G|-10-----------10----------10-----------10------------------------------12--10-----
D|---------------------10-----------------------------------------------------------
A|----------------------------------------------------------------------------------
E|----------------------------------------------------------------------------------

  -----------------------------------------------------------------|
  -13--13--12-----------13--13--12--13--13/15~~~\------------------|
  -------------14--12----------------------------------------------|
  -----------------------------------------------------------------|
  -----------------------------------------------------------------|
  -----------------------------------------------------------------|

V Peti dio sola (zavrsni)
e|----------------------------------------------------------------------------------
B|-----19------17------15------14---14^^r--12--14^^--14--12-------------------------
G|----------------------------------------------------------------------------------
D|-16------16------16------16--------------------------------14^^r--12--14^^r^^r----
A|----------------------------------------------------------------------------------
E|----------------------------------------------------------------------------------


Iskreno meni se ova pesma ne svidja ali
ima zanimljiv solo. Vibriranje i tajming
dodajite i odredjujte sami slusajuci pesmu.
I nemojte da vas zbuni sto sam negde za "bend"koristio
"b" ili ^^ oba imaju isto znacenje.
Ako neko ima ispravki ili komentara neka mi posalje. 
>>>>Sk8@nisky.net<<<<

***VERZIJA 2***
Transkripcija: Toma 3:16 (toma3-16@wanadoo.fr)


-----------------------15~15~---------------------------
8-13~--15^16^15~-13-16--------18~-16-13-----------------
----------------------------------------12^10^8^12^12~--
--------------------------------------------------------
--------------------------------------------------------
--------------------------------------------------------

 F#               C#
  Nema veze gde boravim,
 F#                  C#
  kada cu mrsiti ili postiti,
     B                 F#
  al'jedno nemogu da zaboravim
  D#            G#        D#            G#
  decu ti necu oprostiti, decu ti necu oprostiti.

 F#            C#
  Ti si mi bio dragi gost
 F#             C#
  i rado sam te gostio.
  B                     F#
  Mozda sam primitivan, prost
  D#             G#       D#             G#
  decu ti nisam oprostio, decu ti nisam oprostio.

RIFF  B              F#
      Zasto su tvoji meci
      B             F#
      isli ka mojoj deci?
        B              F#
      O njima sanjam i mastam,

      D#              G#       D#              G#
      decu ne mogu de prastam, decu ne mogu de prastam.

 F#                  C#
  Mozda bih nabujale reke
 F#             C#
  izmedu nas premostio,
     B                 F#
  postoje druge stvari neke,
  D#             G#       D#             G#
  decu ti nisam oprostio, decu ti nisam oprostio.

RIFF  B              F#
      Zasto su tvoji meci
      B             F#
      isli ka mojoj deci?
        B              F#
      O njima sanjam i mastam,

      D#              G#       D#              G#
      decu ne mogu de prastam, decu ne mogu de prastam.