Riblja Corba - Dijabola

Transkripcija: Toma 3:16 (toma3_16@msn.com)


intro :
-----------------------------------------------------
-----------------------------------------------------
-------------5------------8-7--------------5--5------
-------------5------------8-7--------------5--5-5-7-- x2
-------------3------------6-5--------------3--3-5-7--
-5-3-5-3-5-3----5-3-5-3-5------5-3-5-3-5-3------3-5--

---------------------------------------------------------
---------------------------------------------------------
-------------5------------8-7--------------5--5----------
-------------5------------8-7--------------5--5-5-7--5-7-
-------------3------------6-5--------------3--3-5-7--5-7-
-5-3-5-3-5-3----5-3-5-3-5------5-3-5-3-5-3------3-5--3-5-

strofa:
-------------------------------------------------------------------------------------
-------------------------------------------------------------------------------------
------------------------------------------------5------------------------------------
5-7-x-x-x-x-x-x-5-7-x-x-x-x-x-x-5-7-x-x-x-x-x-x-5-5-7--5-7-x-x-x-x-x-x-5-7-x-x-x-x-x-
5-7-x-x-x-x-x-x-5-7-x-x-x-x-x-x-5-7-x-x-x-x-x-x-3-5-7--5-7-x-x-x-x-x-x-5-5-x-x-x-x-x-
3-5-x-x-x-x-x-x-3-5-x-x-x-x-x-x-3-5-x-x-x-x-x-x---3-5--3-5-x-x-x-x-x-x-3-5-x-x-x-x-x-

refren :

       Dm
Ja sam decko dijabola,
       G
ja sam Budalina Tale,
       E
ja sam pametan do bola,
       Am       G
ja sam primerak budale.

       Dm
Ja sam decko dijabola,
      G
objavljujem da se sazna
       E
da sam pametan do bola,
      E    Dm    C   B   E  Dm  C  B
da je moja glava prazna.