Riblja Corba - Dva Dinara Druze

Transkripcija: Milan Milatovic
Poslao       : Luka Manojlovic (Luka.Manojlovic@guest.arnes.si)
Home         : The Book of Rock and Roll: Riblja Corba
 



Am   Am9 Am10 Am9          Am     Am9 Am10 Am9
Decurliji nasoj smisljasmo imena,
Am    Am9    Am10  Am9        Am    Am9 Am10 Am9 
Voleh je sve vise svaki bozji dan,
C         G                   Am    Am9 Am10 Am9
Ubedih se najzad, to je prava zena!
C           G          F      Am Am9 Am10 Am9
Zajedno smo stedeli za stan.


Sedeo sam tako sam za nasim stolom,
Sve sto iole vredi, palo je u vodu,
Opet me je zensko napravilo volom,
Igrao sam samo epizodu.

Refren:

G    
Htedoh da zaurlam, strcao sam dole,
Am    Am10        Am10        Am9 
Nisam mog'o da izdrzim duze,
G
Socijalni slucaj, pred vratima WC-a,
F                                        Am Am9 Am10 Am9
Rekao je - Dva dinara druze! Dva dinara druze.
G
"Mala nuzda jedan, a velika dva,"
Am       Am9        Am10   Am9
Pogledom ga sasekoh k'o macem,
G
"Izvinite molim", pitao sam ja,
F                               Am Am9 Am10 Am9
"Kol'ko kosta kad unutra placem"?



***VERZIJA 2***
Am   Asus2 Am7  Asus2       Am  Asus2  Am7 Asus2
Decurliji nasoj smisljasmo imena
Am    Asus2  Am7  Asus2       Am Asus2 Am7 Asus2
Voleh je sve vise svaki bozji dan
C         G                   Am Asus2 Am7 Asus2
Ubedih se najzad, to je prava zena
C           G          F
Zajedno smo stedeli za stan
           Am   Asus2  Am7  Asus2
Stedeli za stan.


Sedeo sam tako sam za nasim stolom
Sve sto iole vredi palo je u vodu
Opet me je zensko napravilo volom
Igrao sam samo epizodu
Samo epizodu.


C                  G
Htedoh da zaurlam, strcao sam dole
F
Nisam mog'o da izdrzim duze
C                     G
Socijalni slucaj pred vratima WC-a
F
Rekao je dva dinara druze
           Am   Asus2  Am7  Asus2
Dva dinara druze.


Mala nuzda jedan, a velika dva
Pogledom ga sasekoh ko macem
Izvinite, molim, pitao sam ja
Kol'ko kosta kad unutra placem
Kad unutra placem.


***VERZIJA 3***
Transkripcija: V-A-M-P-I-R

TEMA:
e-----0-------0--------0-------------
h-----1-------1--------1-------------
g-----2-------2--------2-------------
d------------------------------------
a--0----0-2-------0-3------3-5-3-2---
e----------------------------------3-

***VERZIJA 4***
Transkripcija: dr kac


Kao sto znate u pitanju su dve gitare, tako da sam ja skrpio da to 
dobro zvuci i na jednoj.
Akordi koje sam dole stavio ( C, G, F ) slobodno RAZLOZITE po vasem 
izboru i zvucace ok.
  
|-----0--------0--------0-----------0------|
|-----1--------1--------1-----3p1p0---3----|
|---2---2----2---2----2---2----------------|
|------------------------------------------|
|-0--------2--------3----------------------|
|------------------------------------------|

|-0---3-------0--------0--------0--------0----0---3---1--|
|-1---0-------1--------1--------1--------1----1---0---1--|
|-0---0-----2---2----2---2----2---2----2---2--0---0---2--|
|-2---0---------------------------------------2---0---3--|
|-3---2---0--------2--------3--------2--------3---2---3--|
|-----3-------------------------------------------3---1--|

|-----0--------0--------0-----------0------|
|-----1--------1--------1-----3p1p0---3----|
|---2---2----2---2----2---2----------------|
|------------------------------------------|
|-0--------2--------3----------------------|
|------------------------------------------|