Riblja Corba - Gastarbajterska 2

Transkripcija: pipss@mail.ru
Home         : http://2akordi.net


VERSE: |Am G  |F  E  | x2

Na priredbi kod Frankfurta
peva Kurta peva Murta
Sinan,Hasan,Jasar,Saban
Nino,Seki i jos neki
 E        Am
i naravno Dzej.

Mala Maja,Marijana
Anci,Brzi i Dajana
Keba,Kemis,Rodza,Jami
svi zajedno u galami
i naravno Dzej.

F
Iso sam kod oni stranci
C
da im otmem mili franci
F
imam jednu zelju zarku
G
da im uzmem koju marku.

Mica, Cica i Zorica
Zoki,Boki, Rodic Roki,
Sladja,Kobra,Stela,Nela
slatka mala Karamela
i naravno Dzej.

Lepa Brena,Extra Nena
Lepa Lana i Cakana
Lepi Bora,Lepi Gagi
Lepi Mica svi su dragi
i naravno Dzej.

Era,Gedza, Bekic Beki,
i naravno Super Sneki,
i sa njima zmija Veki,
Viki,Siki,Ziki,Riki
I naravno Dzej.

Peva Sinko, i Marinko
Mitar Miric,Skoric Mira,
dok muzika grozno svira
peva hitic Mile Kitic
i naravno Dzej.

***VERZIJA 2***
Transkripcija: Milos Maksic


Intro:
U originalu ovaj deo ne svira gitara, ali sam pokusao da uradim 
aranzman:

E|------------------------------|---------------------------|
H|------------------------------|---------------------------|
G|------------------------------|---------------------------|
D|------------------------------|---------------------------|
A|--0--3-0---0-------0--------0-|--0--3-0---0-------0-------|
E|---------3---3---3---3--1-3---|---------3---3---3---3--1--|

Solo:
E|-------------------------|-------------------------|
H|----1--------------1-0---|----1------------1-------|
G|--2---2-4-0--0---2-----1-|--2---2-4-0--0-----2-----|
D|---------------3---------|---------------3-----2---|
A|-------------------------|-------------------------|
E|-------------------------|-------------------------|

***VERZIJA 3***
Transkripcija: InFeCtOr

UVOD:
E|----------------------------------|---------------------------------|
H|----------------------------------|---------------------------------|
G|----------------------------------|---------------------------------|
D|----------------------------------|---------------------------------|
A|-----3--------5-------3-----------|-----3--------5--------3---------|
E|--5-----5--3-----3--1----1--0-0--3|--5-----5--3-----3--1-----1--0~~-|