Riblja Corba - Gde Si U Ovom Glupom Hotelu

Transkripcija: Damir Fific (dd3@iname.com , budala@angelfire.com)
Home         :http://2akordi.net
 

album: Koza Nostra

transkribcija:   Damir Fific,The Netherlands, 
dd3@iname.com  ili budala@angelfire.com
Za sve primjedbe,ideje,zelje itd... pisite na jednu 
od te dvije adrese

info:  rock 'n' roll onako kako bi trebao da bude.
Pjesma je inace u D-duru / B-molu i nebi trebala dati 
nekih poteskoca za sviranje osim sola.Ja sam skoro 
osijedio dok sam ga skinuo ali bilo je vrijedno truda.
Za solo su koristene dvije skale: B-mol ( B,C#,D,E,F#,
G,A) i B-pentatonic ( B,C,E,F#,A).Za arpeggio's 
sweep-picking ostalo alternate!!!


figure 1:intro riff                           
   D5   A5 B5 F#5 G5                          
E|-------------------------------------------|
B|-------------------------------------------|
G|-------------------------------------------|
D|-7-7-----4-4---------^---------------------|
A|-5-5--7--2-2--4-5--5-/-4--5--7----4-5-7----|
E|------5-------2-3--3-/-2--3--5--5--------5-|


figure 3: prelaz refren-intro 
           Em       A  B  
-----------0-------------
-------------0-----------
---------------0---------
-----------------2--2--4-
--------------------0--2-
-5-3-2--0----------------


figure 2 : pre-chorus
B5 F#5 G5                            A5
-----------------------------------------------------------
-----------------------------------------------------------
----------------------------------------------------------- X2
-4---------------------------4--4-4--2--4-----4--4-4--2--4-
-2--4--5-5-4-5-----5-5-4-5---2--2-2--0--2--0--2--2-2--0--2-
----2--3-3-2-3--0--3-3-2-3---------------------------------

-------------------------
-------------------------
-------------------------
-------------------------
--7-7-7-7-7-7--9-9-9-9-9-
--5-5-5-5-5-5--7-7-7-7-7-


Bm      G          D     A            
Godine ,ko papirni zmajevi;
Bm       G          A
misli mi ka tebi lete.
Ovde su pasivni krajevi,
i placem kao malo dijete.

pre-chorus: (figure 2)

     Mozda je glupo sto ovo pisem,
     ali bez tebe ne mogu da disem.  

refren
B5        D5          A
Gdje si u ovom glupom hotelu,  prelaz( na 6. zici A, G, F# )
gdje si u ovom dalekom selu.
Zbog tebe vene ja bi sjeko,
a ti si negdje tamo daleko. (figure 3)

solo
                       bend  release                  
------------------------------------------------------
-------14-15-----14-15-17-(19)-^-15--17-15-14---------
----16--------16------------------------------14------
-16----------------------------------------------14---
----------------------------------------------------17
------------------------------------------------------

      bend
---------------------------
----------7----------------
----9-(11)--9^7^9--7-------
---------------------9^7^9-
-12------------------------
---------------------------

--------------------------------------------------------
----------------------------------7-8-10-8-7------------
------------------------------7-9------------9-7-6-7-9-9
-7--------------------------9---------------------------
---9^7^9-7-------------/-10-----------------------------
-----------10^7^10--7-----------------------------------

-10-12-9-10---10-------
------------12---10-12-
-----------------------
-----------------------
-----------------------
-----------------------

-----------------------------------------------
-8-10----8-------------------------------------
------11---9-11-7-9----7-----------------------
--------------------11---9-11--7-9----7--------
-----------------------------------10----9-10-7
-----------------------------------------------

----------------------------------
-----------------------10---------
---------------------9----12-11-9-
-------------9-11-12--------------
-9----7---------------------------
---10---9-10----------------------

-----------------14^10-------------------------10-
-----------------------12-------------------12----
-12-11-9------------------11--------------11------
---------12--11--------------12--------12---------
--------------------------------14--14------------
--------------------------------------------------


--14^10---------------------10^14
--------12---------------12------
-----------11----------11--------
--------------12----12-----------
-----------------14--------------
---------------------------------


--15^14--------17^15-14-----19-17-15--------------------
--------17-15-----------17-----------19--19-17-15-14-15-
--------------------------------------------------------
--------------------------------------------------------
--------------------------------------------------------
--------------------------------------------------------

^ = pull-of (ili hammer-on)
7(9)=bend citavu notu