Riblja Corba - Gluposti

Transkripcija: Nenad Stojanovic, nesa0210@hotmail.com


C                a
Nemam vise motiv da bih bio protiv,
F               D             G
nisam neukrotiv, ja priznajem poraz.
C                a
Ko macka u dzaku smucam se po mraku,
F               D           G
sam u corsokaku i priznajem poraz.

Ref:
     F           F7          C
Ovih dana sve mi mirise na jesen
      F         F7       C
ja cu opet biti sasav i zanesen
G      F           G      F        C
Gluposti, sve same gluposti a kuda dalje?
           G
Bog sveti zna

Nemam vise motiv da bih bio protiv,
nisam neukrotiv, ja priznajem poraz
Ko macka u dzaku smucam se po mraku,
sam u corsokaku i priznajem poraz.

Ovih dana sve mi mirise na jesen
ja cu opet biti sasav i zanesen
Gluposti, sve same gluposti a kuda dalje?
                         C
Bog sveti zna. Bog sveti zna.

Ovih dana sve mi mirise na jesen
ja cu opet biti sasav i zanesen
Gluposti, nista osim gluposti a kuda dalje?
Bog sveti zna 2x


***VERZIJA 2***
Transkripcija: S.R.
Album        : Muzicari koji piju


uvod
  C           Am          Fmaj       D     G
---------------------------------------3p2----3-3-----
----1-------1---1-------1---1------1----------3-0-3-0-
----0-----0-----------2-------0h2-2-----------0-0-0-0-
------0h2---------0h2-----3----------0-----0--0-------
--3-----------0----------------------------2--2-------
-------------------------------------------3--3-------

solo
 C                     Am                  F         D      G
------------------------------12------------------------------------------
-13-10---13-10--13\12--13p10-----15-13\12---------------------------------
-------------------------------------------14p12--12\11--11-12------------
------------------------------------------------------------------10b12r10
--------------------------------------------------------------------------
--------------------------------------------------------------------------
                C                    Am                   F
--------------------------------------------12----------------------------
----------------13-10--13-10--13\12--13p10-----15--13\12------------------
----------------------------------------------------------14p12-----------
--9-----------------------------------------------------------------------
----10--8/10--------------------------------------------------------------
--------------------------------------------------------------------------
   D            G
----------------15--
-------------18-----
---14/16--17--------
--------------------
--------------------
--------------------