Riblja Corba - Hleba I Igara

Transkripcija: Toma 3:16 (toma3-16@wanadoo.fr & toma3_16@msn.com)


INTRO BASS I STROFE :
 F#              E
----------------------------------
----------------------------------     vise puta
----------------------------------
-2-2-2-2-2-2-2-2-0-0-0-0-0-0-0-0--

INTRO GITARA : 
 F#                             E                         F#
---------------------------------------------------------------
----14-12-14-----14-12-14--17~----12-11~----12-11~----15~-14~--
-11-----------11----------------9---------9--------------------
---------------------------------------------------------------
---------------------------------------------------------------
---------------------------------------------------------------

BASS  F#
      Tuci burazeru u koznu krusku udri, majstore, razbij mu njusku, 
      E
      sve dok ne oboris majmune brate, nece umeti da te shvate.

BASS  F#
      Nece umeti da te cene, ako ih tuces na poene 
      E
      udri rodzeni, sarani stoku, sravni sa zemljom, pljuni po oku.

 F#                             E                         F#
---------------------------------------------------------------
----14-12-14-----14-12-14--17~----12-11~----12-11~----15~-14~--
-11-----------11----------------9---------9--------------------
---------------------------------------------------------------
---------------------------------------------------------------
---------------------------------------------------------------

BASS  F#
      Prospi mu mozak, bubreg odvali, polomi kosti i kicmu budali, 
      E
      neka ga olade i desna i leva, cepaj mu mozak, prospi mu creva.

BASS  F#
      Udri medju rogove da popije patos posle mu kupi svecu za parastos, 
      E
      oplavi labrnju, razbij arkadu, sevni mu aperkat pravo u bradu.

RIFF  C#
      Dok nas iznutra grickaju crvi, 
      B      F#    C#
      hocemo sveze crvene krvi, 
      C#
      zato ga ubij, zato ga smrvi, 
      B       F#     C#
      hleba, igara i mnogo krvi.
      B       F#     C#
      Hleba, igara i mnogo krvi.
      B       F#     C#
      hleba, igara i krvi.