Riblja Corba - Ja Cu Da Pevam

Transkripcija: Partibrejkers


Rif (priguseno)
E------------------------------------
H------------------------------------
G------------------------------------
D------------------------------------
A----3-2---3-2-----------------------
E--5-----5-----5-0-------------------

Strofa:

Rif + Rif 2

Rif 2 (priguseno)
E---------------------------------
H---------------------------------
G---------------------------------
D---------------------------------
A-3-3-3-3-5-5-5-5-5-5-5-5---------
E-1-1-1-1-3-3-3-3-3-3-3-3---------

Druga gitara svira preko rifa
E--5---5--------------
H--5---6--------------
G--5---5--------------
D--7---7--------------
A--7---7--------------
E--5---5--------------

Vecera je gotova
Ima puno otrova
Svi jedemo splacine
Na razlicite nacine

Napisali ustave
Da mozak zaustave
Napisali zakone
Da se bolje zaklone

Eno, ide istina
Dronjavo obucena
Grbava i mrsava
Krvava, pretucena

Danas nema nastave
Okacite zastave
Urlajte parole
Jer salju patrole

Kad zatvore sagrade
Delice se nagrade
Nagradjeni dobiju
Batine i robiju

Radnici i radnice
Ne budite gladnice
Uvek ima kol'ko treba
Govana i hleba

Vojska vrsi obrede
U cast svoje pobede
Trose nase zarade
Da naprave parade


Most (d-zicu priguseno, g-zicu otvoreno svirati)

E-------------------------------------------
H-------------------------------------------
G---5---4---5---4--(2X)-------5---4---5---4-
D-3---3---3---3-------------5---5---5---5---(2X)
A-------------------------------------------
E-------------------------------------------


Druga gitara
E-------------------------------------------
H-------------------------------------------
G-------------------------------------------
D-------------------------------------------
A-3-3-3-3-3-3-3-3-5-5-5-5-5-5-5-5-----------
E-1-1-1-1-1-1-1-1-3-3-3-3-3-3-3-3-----------

A ja cu da pevam
Makar i promuklo
A ja cu da pevam
Kud puklo da puklo

Refren
E--3-3-3-3-3-3-3------3-3-3-3-3-3-3-----5-5-5-5-5-5-5--------
H--5-5-5-5-5-5-5------3-3-3-3-3-3-3-----5-5-5-5-5-5-5--------
G--5-5-5-5-5-5-5------4-4-4-4-4-4-4-----5-5-5-5-5-5-5--------
D--5-5-5-5-5-5-5------5-5-5-5-5-5-5-----7-7-7-7-7-7-7--------
A--3-3-3-3-3-3-3------5-5-5-5-5-5-5-----7-7-7-7-7-7-7--------
E---------------------3-3-3-3-3-3-3-----5-5-5-5-5-5-5--------

E-1-1---1-1-------------------------------------
H-1-1---1-1-------------------------------------
G-2-2---2-2-------------------------------------
D-3-3---3-3-------------------------------------
A-3-3---3-3-------------------------------------
E-1-1---1-1-------------------------------------

Ja cu da pevam!

Solo:
E-------------------------------------------------
H----------------------12---12----12--------------
G-------------------14---------14----14-----------
D-------------12-14---------------------14--------
A----12-14-15-------------------------------------
E-12----------------------------------------------

E-------------------------------------------------
H------12-13-12----12----12-----------------------
G---14----------14----14----14--------------------
D14----------------------------14-----------------
A-------------------------------------------------
E-------------------------------------------------

E-------------------------------------------
H-------------------------------------------
G-------12----------------------------------
D-14-15----15-14------------12-14-----------
A-----------------15--14-15-------14--------
E-------------------------------------------

E-------------------------------------12----------
H----------------------------12-13-15----15-13-12-
G-------------------------14----------------------
D----------------------14-------------------------
A--15-12-14-----12-15-----------------------------
E-----------15------------------------------------

E----------------------------------13-12-13-12----------
H--------12-13--12-13-15b17r15---15------------12-15-13-
G-----14------------------------------------------------
D--14---------------------------------------------------
A-------------------------------------------------------
E-------------------------------------------------------