Riblja Corba - Ja Je Gledam Kako Spava

Transkripcija: Dario (uzunovic@tebenet.nl)
Home         : 2akordi.net
  
  
[Hm]Mesec sija,[F#m] iluzija 
[Hm]Ona spava na[F#m] kaucu 
[A]Uskoro cu leci i[D] ja 
[A]Dok napolju psi[D] jaucu  2x [D]jau[F#]cu 

Svi spavaju, niko budan 
A ja sedim uzaludan 
I gledam je hipnotisan 
Sav zaljubljen i otpisan 

Ona dise, sve mirise 
Ne treba mi niko vise 
Po njoj samo mesecina 
Prosula se k'o istina 

Ja je[Fdim] gledam[Edim] kako[Hm] spava[D] 
[Fdim]Lepa[Edim] je, boli[Hm] glava 
        

***VERZIJA 2***
Transkripcija: Mukajlo


prvo ide razlaganje Fdim Edim Hm Ddur, pa onda :

GLAVNI RIFF:
------------------------------------
------------------------------------
-------------------------------9----
--------7-9--10-9--9h10p9-9-7-------
---7-8------------------------------
------------------------------------

------------------------------------
------------------------------------
------------------------------------
--------7-9--10-9--9h10p9--7-8------
---7-8------------------------------
------------------------------------

Do jaja pesma, nigde nema tab za nju...
Mukajlo