Riblja Corba - Ja Ratujem Sam

Transkripcija: Ivan Djacic (djacic@yahoo.com)


uvod: Am F Dm E 2x

Am                                   C G Am
Svake noci Brankovice pozivam na pice
Am                             C G Am
Svuda oko sebe nalazim slabice
F                 G
Ko sa decom spava popisan se budi,
F                 G
Trazio sam svecom nigde nema ljudi
F              G
Kadija te tuzi kadija ti sudi
F G Am
U pomoc!

ref:
Am G          Am
Ja    ratujem sam
Am G          Am
Ja    ratujem sam
G
Prevarice slagace me rodjeni brat,
Prodace me zabice mi noz u vrat
Ja nemam poverenja niti hocu da ga dam
    Am G       < uvod>
Jer ja ratujem sam

Uplaseni prijatelji ni da mrdnu prst
Sledeci sam koga ce da razapnu na krst
Savest mi je mirna necu da se kajem,
Dok me mozak sluzi ja cu da ga dajem,
Grlo mi je jako zato glasno lajem
U pomoc!

< ref>
< solo: Am F Dm E 4x>

Am G          Am
Ja    ratujem sam
Am G          Am
Ja    ratujem sam
Am G          Am
Ja    ratujem sam
Am G          Am
Ja    ratujem sam

                 ^  ^
/--------------( *  * )--------------\
|====================================|
|        < DjAkOn   StRaSnI >        |
|     CrambambulyPunch@yahoo.com     |
|    CrambambulyPunch@popstar.com    |
\------------------------------------/
 
***VERZIJA 2***
Transkripcija: Toma 3:16 (toma3-16@wanadoo.fr & toma3_16@msn.com)


RIFF  A          F          D        E D C B
      ----------------------------------------
      ----------------------------------------
      -------------------------------5-4------  x2
      7-7-5-7~-5^7-7-5-7~-5^7-7-5-7~-----7-5--
      ----------------------------------------
      ----------------------------------------

RIFF  A                                     C G A
      Svake noci Brankovice pozivam na pice, 
      A                              C G A
      svuda oko sebe nalazim slabice, 
      F                  G
      ko sa decom spava, popisan se budi, 
      F                  G
      trazio sam svecom, nigde nema ljudi, 
      F                G
      kadija te tuzi - kadija ti sudi, 
      F G A
      u pomoc.

RIFF  A         G         A
      Jaaaaaaaa a ratujem sam. D|-7-7-5-7~-5^7-7-5-7~-
      A         G         A
      Jaaaaaaaa a ratujem sam. D|-7-7-5-7~-5^7-7-5-7~-

RIFF  G
      Prevarice, slagace me rodzeni brat, 
      prodace me, zabice mi noz u vrat, 
      nemam poverenja, niti hocu da ga dam, 
      A         G         A
      Jaaaaaaaa a ratujem sam.

RIFF  A          F          D        E D C B
      ----------------------------------------
      ----------------------------------------
      -------------------------------5-4------  x2
      7-7-5-7~-5^7-7-5-7~-5^7-7-5-7~-----7-5--
      ----------------------------------------
      ----------------------------------------

RIFF  A                                    C G A
      Uplaseni prijatelji ni da mrdnu prst, 
      A                                      C G A
      sledeci sam koga ce da razapnu na krst, 
      F                   G
      savest mi je mirna, necu da se kajem, 
      F                   G
      dok me mozak sluzi, ja cu da ga dajem, 
      F                G
      grlo mi je jako, zato glasno lajem, 
      F G A
      u pomoc.

RIFF  A         G         A
      Jaaaaaaaa a ratujem sam. D|-7-7-5-7~-5^7-7-5-7~-
      A         G         A
      Jaaaaaaaa a ratujem sam. D|-7-7-5-7~-5^7-7-5-7~-

RIFF  G
      Prevarice, slagace me rodzeni brat, 
      prodace me, zabice mi noz u vrat, 
      nemam poverenja, niti hocu da ga dam, 
      A         G         A
      Jaaaaaaaa a ratujem sam.

RIFF  A          F          D        E D C B
      ----------------------------------------
      ----------------------------------------
      -------------------------------5-4------ x2
      7-7-5-7~-5^7-7-5-7~-5^7-7-5-7~-----7-5--
      ----------------------------------------
      ----------------------------------------

SOLO + RIFF  A  F  D  E  (x4)

RIFF  A         G         A
      Jaaaaaaaa a ratujem sam. D|-7-7-5-7~-5^7-7-5-7~-
      A         G         A
      Jaaaaaaaa a ratujem sam. D|-7-7-5-7~-5^7-7-5-7~-
      A         G         A
      Jaaaaaaaa a ratujem sam. D|-7-7-5-7~-5^7-7-5-7~-
      A         G         A
      Jaaaaaaaa a ratujem sam.