Riblja Corba - Ja Sam Jos Ona Ista Budala

Transkripcija: ????
Poslao       : Nebojsa (npfc@hotmail.com)
Home         : http://2akordi.net



Am    G               Am
Ti si moja stanica na putu
G                 Am
Jedan stepenik do neba
G                     Am
Otrov koji i te kako treba.


Ti si uvek bolja polovina
Nekad jagnje, nekad zmija
Moja ili bilo cija.

Kada te ostave svi svaleri
Kad shvatis da si pala
Iskopaj negde broj telefona
Ja sam jos ona ista budala.

Kad skines jednog jutra sminku
I vidis sta si drugima dala
Prikupi hrabrost i dodi do mene
Ja sam jos ona ista budala
Ista budala.

Ti si nepredvidiva ko davo
I od gvozda i od stakla
Deo raja, deo pakla.

Ti si uvek bolja polovina
Nekad jagnje, nekad zmija
Moja ili bilo cija.

Kada te ostave svi svaleri
Kad shvatis da si pala
Iskopaj negde broj telefona
Ja sam jos ona ista budala.

Kad skines jednog jutra sminku
I vidis sta si drugima dala
Prikupi hrabrost i dodi do mene
Ja sam jos ona ista budala
Ista budala.


***VERZIJA 2***
D C D C D C DC DC DC Ti si moja stanica na putu 
DC DC DC jedan stepenik do neba 
DC DC DC (2x) otrov koji i te kako treba.

DC DC DC DC DC DC Ti si uvek bolja polovina, 
DC DC DC nekad jagnje, nekad zmija, 
DC DC DC(2x) moja ili bilo cija.

Ti si nepredvidljiva ko djavo, 
i od gvozdja i od stakla, deo raja, deo pakla.

[B] Kada te ostave svi svaleri, 
[G] kad shvatis da si pala, 
[D] iskopaj negde broj telefona 
[F] [C] ja sam jos ona ista budala.

[B] Kad skines jednog jutra sminku 
[G] i vidis sta si drugima dala, 
[D] prikupi hrabrost, dodji do mene 
[F] [C] [D] (2x) ja sam jos ona ista budala.
        
***VERZIJA 3***
Transkripcija: Aleksandar Urosevic (Aca_Urosevic@yahoo.com)

Uvodni Solo: 
E------------------------------8-----------|
H-------------------8^10~ 8^10---10 8 8----|
G-5^7-10^9-7-5-5^7----------------------10-|
D------------------------------------------|
A------------------------------------------|
E------------------------------------------|

E----------------------------8-----------------|--------------------
H-----------------------8^10---10-10^8-----8---|--------------------
G-5^7-10-9^10^9-7-5-5^7----------------10------|-----5^7~~~~~~~~~~~  
D--------------------------------------------10|--------------------
A----------------------------------------------|--------------------
E----------------------------------------------|--------------------