Riblja Corba - Jak, Mlad I Glup

Transkripcija: Toma 3:16 (toma3-16@wanadoo.fr)


INTRO i STROFA:
C      G  A      C     G  D
-------------------------------
-------------------------------
-------------------------------
--------------------------7-7--
----3--5--7-7-------3--5--5-5--
0-2----3--5-5---0-2----3-------

RIFF   C     G     A
       Uzecu licno naoruzanje
       C      G       D
       idem u grad da napravim sranje
       C      G       A
       ima da smanjim brojno stanje
       C    G         D
       kada upotrebim naoruzanje.

RIFF   C      G       A
       Ako me popreko pogleda neko
       C        G    D
       taj se zauvek gadno opek'o
       C           G       A     
       jos kad' bi nesto o meni rek'o
       C             E
       ne bih pucao, nego bih sek'o.

RIFF              A     C     D
       Jer ja sam mlad, jak i glup,
         C            D
       a zivot dzabe, nimalo skup
              A     C      G
       ja sam mlad, glup i jak
          C       G
       na obaracu veoma lak.

C      G  A      C     G  D     C      G  A     C      A  E
--------------------------------------------------------------------
--------------------------------------------------------------------
--------------------------------------------------------------------
--------------------------7-7-----------------------------9-9--9-9--
----3--5--7-7-------3--5--5-5-------3--5--7-7-------3--7--7-7--7-7--
0-2----3--5-5---0-2----3--------0-2----3--5-5---0-2----5------------

RIFF   C      G       A
       Ako mi neko presece put
       C       G     D
       umem da budem veoma lju
       C          G    A
       neka se ne nada nicem boljem
       C             E
       ili da pucam, ili da koljem.

RIFF              A     C     D
       Jer ja sam mlad, jak i glup,
         C            D
       a zivot dzabe, nimalo skup
              A     C      G
       ja sam mlad, glup i jak
          C       G
       na obaracu veoma lak.
              A     C     D
       Ja sam mlad, jak i glup,
         C            D
       a zivot dzabe, nimalo skup
              A     C      G
       ja sam mlad, glup i jak
          C       G
       na obaracu veoma lak.

SOLO...

              A     C     D
       Ja sam mlad, jak i glup,
         C            D
       a zivot dzabe, nimalo skup
              A     C      G
       ja sam mlad, glup i jak
          C       G
       na obaracu veoma lak.
       A     C     D
       Mlad, jak i glup,
         C            D
       a zivot dzabe, nimalo skup
              A     C      G
       ja sam mlad, glup i jak
          C       G
       na obaracu veoma lak.
   
C      G  A      C     G  D     C      G  A   
----------------------------------------------
----------------------------------------------
----------------------------------------------
--------------------------7-7-----------------
----3--5--7-7-------3--5--5-5-------3--5--7-7-
0-2----3--5-5---0-2----3--------0-2----3--5-5-

  G   B G   C G       B G   C G       B G   C G    A
-------------------------------------------------------
-------------------------------------------------------
-------------------------------------------------------
------4-----5---------4-----5---------4-----5----------
--5-5-2-5-5-3-5-5-5-5-2-5-5-3-5-5-5-5-2-5-5-3-5-5--7~--
--3-3---3-3---3-3-3-3---3-3---3-3-3-3---3-3---3-3--5~--