Riblja Corba - Jedino Moje

Transkripcija: Milan Petrovic (comi011@beotel.net)


        Am       C       G       
   e-------------------------------5--8-7-5-------0-------3---------]
   H---------------5---------------5-------------1-------3----------]
   G------5-------5--------4-------5------------0-------4-----------]
   D-----7-------5--------5--------------------2-------5------------]
   A----7-------3--------5------------------------------------------]
   E---5----------------3-------------------------------------------]

        D         A       G         Hm   
   e----------------------------------------------------------------]
   H------7---------------------------3-----------------------------]
   G-----7---------6--------4--------4------------------------------]
   D----7---------7--------5--------4-------------------------------]
   A---5---------7--------5--------2--------------------------------]
   E------------5--------3------------------------------------------]

      A5     C5     G5                D5     A5    G5     1.X    2.X
   e-------------------------------]------------------=---------=---]
   H-------------------------------]------------------=---------=---]
   G------XX-55--------------------]--77--------------=---------=---]
   D--77--XX-55--0--55-------------]--77--xx-77----55-=-----2---=-4-]
   A--77--XX-33--0--55--2h3p2h3p2--]--55--xx-77----55-=-2-5---2-=-4-]   
   E--55---------0--33-----------3-]------xx-55--0-33-=---------=-2-]   


   SOLO:       
                 B 
  e--------]---8^(10)--------8-10-12-10-8-10p8---------------8p7-----8--]
  H---12---]--------------10-------------------10-8-10-----10---10------]
  G--------]------------------------------------------------------------]
  D--------]------------------------------------------------------------]
  A--------]------------------------------------------------------------]
  E--------]------------------------------------------------------------]

         B        R                   B ovde iseci ton 
  e---10^(12)-(12)^10p8----------8-10^(12)------------------------------]
  H---------------------10----10----------------------------------------]
  G---------------------------------------------------------------------]
  D---------------------------------------------------------------------]
  A---------------------------------------------------------------------]
  E---------------------------------------------------------------------]
                       R*
  e---12--12-10---------------------------------------------------------]
  H-------------13-(13)^12-----13p12-10----10---------------------------]
  G-------------------------------------12------------------------------]
  D---------------------------------------------------------------------]
  A---------------------------------------------------------------------]
  E---------------------------------------------------------------------]

  e--------------10-------8P7----8-12-17--------------------------------]
  H---10-12-13----------------10----------------------------------------]
  G---------------------------------------------------------------------]
  D---------------------------------------------------------------------]
  A---------------------------------------------------------------------]
  E---------------------------------------------------------------------]

  Napomena: na zahtev cenjenih mi kolega, evo skinuo sam i solo :))))
            i solazu sam skidao na akusticnoj gitari posto samo na njoj 
            sviram
            (na elektricnoj sam svirao 2 puta u zivotu) tako da ne znam 
            kako ovo zvuci na elektricnoj ali na akustari zvuci,
            ja mislim dosta dobro! :) tamo gde sam stavio "R*",
            na elektricnoj se mozda svira drugacije, mozda se koristi 
            onaj efekat opustanja zise ili neki vec.. ( to ovi elektricari 
            bolje znaju  :))))  na akustari moze da prodje i ovako!!! :))


   tekst pesme: 

   I sve je islo kao po loju
   Dok sam te imao kao moju
   To nije mogla biti bilo koja
   Sve dok si bila moja
   Druge ne mogu da postoje
   Od ove samo jedine moje
   Ljudi matore, boraju se, goje
   A ti jos lepa, jedino moje
   K'o Indijanac stavljam ratnicke boje
   Da te osvojim, jedino moje
   Kad bi bio potop, a ja da sam Noje
   I tebe bih poveo, jedino moje
   Bilo je zena ne zna se broja
   Al' samo ti si bila moja
   Ja nemam mira, nemam ni spokoja
   Kad nisi kraj mene, jedina moja
   Grci zbog ljubavi unistili Troju
   Ja bi' sve dao za ovu moju
   Losi krojaci sudbinu kroje
   Zasiven za tebe, jedino moje
   Ja sam ranjen, rane se gnoje
   Gde si najlepse, jedino moje
   I oko rana muve se roje
   Zbogom najlepse, jedino moje
  
   Naravno uvek su moguci neki propusti i 
   neke sitnije greske (krupnijih bar ne bi 
   trebalo da bude) i ako ih uocite...javite mi!!!

***VERZIJA 2***
Transkripcija: Pedja (pedja4@yahoo.com)

Ovo je nadogradnja jednog dela rada koji je poslao 
Milan Petrovic, takodje isprobano samo na akusticnoj gitari 
i ja mislim da ovako mnogo bolje zvuci!


   e---5--------0-------3----------5--8-7-5----0---0----3---3---------]
   H---------------5------------------------------1--------3----------]
   G------5-------5--------4---------------------0--------4-----------]
   D-----7-------5--------5--------------------2--------5-------------]
   A----7-------3--------5--------------------------------------------]
   E---5----------------3---------------------------------------------]

   e---5--------0-------3----------5--8-7-5----0---0----3---3---------]
   H---------------5---------------5--8-7-5----1--1-----3--3----------]
   G------5-------5--------4---------------------0--------4-----------]
   D-----7-------5--------5--------------------2--------5-------------]
   A----7-------3--------5--------------------------------------------]
   E---5----------------3---------------------------------------------]


***VERZIJA 3***
Poslao       : Marko (lade@bendroz.ca)

STROFA: Am,C,G,D 
        Am,C,G D,A,G,Hm 
REFREN: A,C,G