Riblja Corba - Kad Hodas

Transkripcija: Mr.Z  mr.z@mindless.com
Home         : http://2akordi.net/

 
 C       Em        G         Am
 Vece ne mirise na rakove i skoljke
 C        Em          G        Am
 Mesec je bleda fleka boje cimeta
 C      Em        G             Am
 Uzimas cipele za setanje kroz snove
 C     Em         G          Am
 Ulica voli ritam tvojih koraka.
 
 Vetar se provlaci kroz nepoznate reci
 Asfalt se miluje sa tvojim stiklama
 Suvise mekan da bi mogao da spreci
 Ovo je vece puno tvojih tragova.
 
 C          G          C
 Kad hodas, ne zastajkujes
 C      G        C
 Zemlju ne dodirujes
 C      G         F
 A mene ne primecujes

 I uporno se trudis da me prode pozuda
 Jos drhtim od tvog pogleda
 Iz nekih starih razloga
 
***VERZIJA 2***
C       Em        G         Am
Vece ne mirise na rakove i skoljke
C        Em          G        Am
Mesec je bleda fleka boje cimeta
C      Em        G             Am
Uzimas cipele za setanje kroz snove
C     Em         G          Am
Ulica voli ritam tvojih koraka.

Vetar se provlaci kroz nepoznate reci
Asfalt se miluje sa tvojim stiklama
Suvise mekan da bi mogao da spreci
Ovo je vece puno tvojih tragova.

G          D          G
Kad hodas, ne zastajkujes
G      D        G
Zemlju ne dodirujes
G      D         C
A mene ne primecujes
                   G     D         G
I uporno se trudis da me prode pozuda
G          D            G
Jos drhtim od tvog pogleda
G        D           C
Iz nekih starih razloga

***VERZIJA 3***
Transkripcija: SLASH

klavir intro:
|-5-4-2-----0------0------------4-5--10-9-7-9-7-5-2-|
|---------2----0-2---3-2-0-2-0----------------------|
|---------------------------------------------------|
|---------------------------------------------------|
|---------------------------------------------------|
|---------------------------------------------------|

|-9-7-5-0----2-|
|----------2---|
|--------------|
|--------------|
|--------------|
|--------------|

D       F#m       A         Bm
Vece ne mirise na rakove i skoljke
Mesec je bleda fleka boje cimeta
Uzimas cipele za setanje kroz snove
Ulica voli ritam tvojih koraka.
 
Vetar se provlaci kroz nepoznate reci
Asfalt se miluje sa tvojim stiklama
Suvise mekan da bi mogao da spreci
Ovo je vece puno tvojih tragova.

A          E          A
Kad hodas, ne zastajkujes
A      E         A
Zemlju ne dodirujes
A      E         D
A mene ne primecujes i uporno se trudis 
da me prode pozuda
Jos drhtim od tvog pogleda
Iz nekih starih razloga ne mogu da se sredim.

		  x2
|-------------------|
|-------------------|
|---9-7b9-7-6-------|
|-7------------9-7--|
|-------------------|
|-------------------|
		  x1
|-------------------|
|-------------------|
|---9-7b9-7-6----7--|
|-7------------9----|
|-------------------|
|-------------------|

    
***VERZIJA 4***
Info: Live(uzivo) verzija (Bm = Hm)

Uvodni riff i verse:
        **     *       **      *
  Dsus4>D   F#m      A          Bm
|----3p2-------2-------------------2---------|
|---3-----------2-------3p2---------3--------|
|--2----2-----2--------2---2------4----------|
|-0------0---4-----4--2-----2----4---4-------|
|-----------4--------0----------2--------2-4-|
|--------------------------------------------|

Solo:				         15
|-18-17-15-------------------|-16-17-19-17p16brbr-15-------------------------|
|---------15----12p10-9-10-7-|----------------------14-14-10h12p10-12-10p9-7-|
|----------------------------|-----------------------------------------------|
|----------------------------|-----------------------------------------------|
|----------------------------|-----------------------------------------------|
|----------------------------|-----------------------------------------------|

D       F#m       A         Bm
Vece ne mirise na rakove i skoljke
Mesec je bleda fleka boje cimeta
Uzimas cipele za setanje kroz snove
Ulica voli ritam tvojih koraka.
 
Vetar se provlaci kroz nepoznate reci
Asfalt se miluje sa tvojim stiklama
Suvise mekan da bi mogao da spreci
Ovo je vece puno tvojih tragova.

A          E          A
Kad hodas, ne zastajkujes
A      E         A
Zemlju ne dodirujes
A      E         D
A mene ne primecujes i uporno se trudis 
da me prode pozuda
Jos drhtim od tvog pogleda
Iz nekih starih razloga ne mogu da se sredim.

Solo na refren ritam:
|---------------|---------------|
|---888-6-5-----|---888-6-5---5-|
|-5---------7-5-|-5---------7---|
|---------------|---------------|
|---------------|---------------|
|---------------|---------------|