Riblja Corba - Kada Padne Noc (upomoc)

Transkripcija: Ivan Djacic (djacic@yahoo.com)


intro: Am7
uvod: Am G Dm Am

Am
Ja zivim na slepom koloseku
Prosli su svi moji vozovi
F
Cit'o sam danasnje novine
Am
Nisu izvuceni moji lozovi

Am/H Am  Am7      Am6 Am
Su---nce izlazi i zalazi
Am/H Am Am7   Am6 Am
Sve  je kao i obicno
F/G F      F7      F6   F
    Kada o tebi ne razmisljam
Am/H    Am Am7    Am6  Am   Am/H Am A5 H5 C5 C#5
Stvarno se osecam odlicno

ref:
Dm           C
A kada padne noc
   Gm      F
Ja zovem u pomoc
    C         B
Jer tebe nema tu
Dm         C
Svaki novi dan
   Gm          F 
Ko smrt je dosadan
    C         B
Jer tebe nema tu

< uvod>

Nisam dripac ni probisvet
I ni zbog ceg nije me stid
Imam svoj mali svet
I oko njega kineski zid

Sunce izlazi i zalazi
Sve je kao i obicno
Kada o tebi ne razmisljam
Stvarno se osecam odlicno

< ref>
< solo: Dm Am Gm C Dm 2x>
< ref>
< kraj = uvod>

!! Am/H  577557 !!
!! Am7   57758x !!
!! Am6   57757x !!
!! F/G   133213 !!
!! F7    13324x !!
!! F6    13323x !!

                 ^  ^
/--------------( *  * )--------------\
|====================================|
|        < DjAkOn   StRaSnI >        |
|     CrambambulyPunch@yahoo.com     |
|    CrambambulyPunch@popstar.com    |
\------------------------------------/
 
***VERZIJA 2***
Transkripcija: Vanja Cerimagic (fur_immer_punk@hotmail.com)
Poslala      : Djavolica (vanja_s@one.net.au)
Home         : http://2akordi.net


e-----------------------------------------------------5---5--------
h---------------------------------------------------------------5--
g----------5--------------5----------------5-7----5-7-------7-5----
d------5-7---7--------5-7---7-5--------5-7-------------------------
a----7--------------7----------------7-----------------------------
e--5--------------5----------------5-------------------------------

a
ja zivim na slepom koloseku

prosli su svi moji vozovi
F
cito sam danasnje novine
a
nisu izvuceni moji lozovi

sunce izlazi i zalazi
sve je kao i obicno
kada o tebi ne razmisljam
stvarno se osecam odlicno

d C
a kada padne noc
g F
ja zovem u pomoc
C B d
jer tebe nema tu uuuu
C
svaki novi dan
g F
ko smrt je dosadan
C B d
jer tebe nema tu uuuu

e-----------------------------------------------------5---5--------
h---------------------------------------------------------------5--
g----------5--------------5----------------5-7----5-7-------7-5----
d------5-7---7--------5-7---7-5--------5-7-------------------------
a----7--------------7----------------7-----------------------------
e--5--------------5----------------5-------------------------------

nisam dripac ni probisvet
i ni zbog ceg nije me stid
imam svoj mali svet
i oko njega kineski zid

sunce izlazi i zalazi
sve je kao i obicno
kada o tebi ne razmisljam
stvarno se osecam odlicno

a kada padne noc
ja zovem u pomoc
jer tebe nema tu
svaki novi dan
ko smrt je dosadan
jer tebe nema tu

a kada padne noc
ja zovem u pomoc
jer tebe nema tu
svaki novi dan
ko smrt je dosadan
jer tebe nema tu

e-----------------------------------------------------5---5--------
h---------------------------------------------------------------5--
g----------5--------------5----------------5-7----5-7-------7-5----
d------5-7---7--------5-7---7-5--------5-7-------------------------
a----7--------------7----------------7-----------------------------
e--5--------------5----------------5------------------------------- 

e---------------------------------
h---------------------------------
g----------5--------------5-------
d------5-7---7--------5-7---7-5---
a----7--------------7-------------
e--5--------------5---------------

e-------------------5---5--------7-5-----------------
h-----------------------------5------5---------------
g--------5-7----5-7-------7-5----------7-5-----------
d----5-7-----------------------------------7-5-------
a--7-------------------------------------------7-5---
e-5--------------------------------------------------5
 
***VERZIJA 3***
Transkripcija: Ivica Ida@post.hinet.hr

  [ 1 ]
               Am                 G                 Dm     Dm         Am 
E||---------------|-------------------|--------------------5--------------
H||---------------|-------------------|----------------------8p5----------
G||----------5--7-|------------5------|-----------5-7v-5---------7p5------
D||----5---5------|-------5--7---7--5-|---------5--------7-----------7s9--
A||--7---7--------|-----7-------------|----7--5---------------------------
E||---------------|--5----------------|--5--------------------------------

Am
 Ja zivim na slepom koloseku, prosli su svi moji vozovi,
F                        Am
 cito sam danasnje novine nisu izvuceni moji lozovi.
Am
 Sunce izlazi i zalazi sve je kao i obicno,
F                        Am
 kada o tebi ne razmisljam stvarno se osecam odlicno.

 Dm           C      Gm        F
 A kada padne noc ja zovem u pomoc,
     C         B                 Dm                 
 jer tebe nema tu.  H|----5-----------
                    G|--7---7--5--7v--
            C      Gm          F
 Svaki novi dan ko smrt je dosadan,
     C         B                 Dm     
 jer tebe nema tu.  H|----5-----------
                    G|--7---7--5--7v--
 [2]
               Am                  G                Dm                    Am
E||--------------|-------------------|---------------------10--8--5----------
H||--------------|-------------------|---------------------------- 8-5----5v-
G||---------5----|------------5------|-----------5--7v--5-------------7-5----
D||-----5-7---7--|-------5--7---7--5-|---------5----------7------------------
A||---7----------|-----7-------------|----7--5-------------------------------
E||-5------------|--5----------------|--5------------------------------------
                     
Am
 Nisam dripac ni probisvet i ni zbog ceg nije me stid,
F                      Am
 imam svoj mali svet i oko njega kineski zid.
Am
 Sunce izlazi i zalazi sve je kao i obicno
F                         Am
 kada o tebi ne razmisljam stvarno se osecam odlicno.

Dm           C      Gm        F
 A kada padne noc ja zovem u pomoc,
     C         B                 Dm                 
 jer tebe nema tu.  H|----5-----------
                    G|--7---7--5--7v--
            C      Gm          F
 Svaki novi dan ko smrt je dosadan,
     C         B                 Dm     
 jer tebe nema tu.  H|----5-----------
                    G|--7---7--5--7v--

  [3]  Solo : Am - Gm - C - Dm - Am - B - C - Dm

  Dm          C      Gm        F
 A kada padne noc ja zovem u pomocÂ…

  [2] Solo : 2 x

***VERZIJA 4***
Transkripcija: urkes


Em          Em7     Em6
Ja zivim na slepom koloseku
Em        Em7       Em6
prosli su svi moji vozovi
Cmaj7
cito sam danasnje novine 
Em         Em7    Em6
nisu izvuceni moji lozovi

Em    Em7      Em6
Sunce izlazi i zalazi
Em     Em7   Em6
sve je kao i obicno
Cmaj7
kada o tebi ne razmisljam 
Em         Em7    Em6
stvarno se osecam odlicno
  
Refren:
               Am         G
             A kada padne noc
                Dm       C
             ja zovem upomoc
                 G        F       Am
             jer tebe nema tu  uuuuu
               Am         G
             i svaki novi dan
                Dm          C
             ko smrt je dosadan
                 G        F      Am
             jer tebe nema tu  uuuuu

Pratnja za solo(uvod) :  Em , D , Am , Am , Em

   Solo(uvod):
E|---------------------------------------------------------------|
H|---------------------------------------------------------------|
G|---------------------------------------------------------------|
D|--------------------5-------------------------------5----------|
A|-------------5--7-------7~--------------------5--7------7--5~--|
E|--5--5h6h7------------------------5---5h6h7--------------------|

                                        1. zavrsetak  
E|------------------------------------|--------------|
H|------------------------------------|-10fb--8--12~-|
G|------------------------------------|--------------|
D|--------------------5--5s7--7s5-----|--------------|
A|-------------5--7----------------7--|--------------|
E|----5h6h7---------------------------|--------------|
 
  2. zavrsetak
E|--------------|
H|-10fb--8------|
G|-----------9~-|
D|--------------|
A|--------------|
E|--------------|


***VERZIJA 5***
Transkripcija: tarik(tarik_bruncevic@yahoo.com)


   * znam da je uradjeno dosta tablatura za ovu pesmu ali ni jedna nije tacna ni
   * potpuna. ja sviram za novo pazarsku grupu FAKAT i ovu smo pesmu svirali na
   * festivalu stari grad. evo uradio sam je celu, bilo mi je mucno da napisem bas.
   * dobro slusajte pesmu,napisao sam tablaturu za svaki zvuk elektricne gitare :)
   * uzivajte kolege gitaristi, sve najbolje


klavijature uvod:Am
uvod: Am,G,D,Am


    gitara pocinje da svira tek ovde kod 7~~
                  Am                       G
e---------------------------------------------------------------
h---------------------------------------------------------------
g-------------5------------------5------------------------------
d----------5-----7~~----------5----5-7~~------------------------
a-----5h7----------------5h7--------------5h7-------------------
e--2/5----------------/5----------------------------------------
                       Dm                             Am
e---------------------------------------------------------------
h-------------------------8b10~~----8b10-10---------------------
g-------------5--7~~5------------------------7b9r7/5--7b9-7b9---
d----------5-----------7~~--------------------------------------
a-----5h7-------------------------------------------------------
e--/5-----------------------------------------------------------

Am
ja zivim na slepom koloseku
Am
prosli su svi moji vozovi
F
cito sam danasnje novine
Am
nisu izvuceni moji lozovi

sunce izlazi i zalazi
sve je kao i obicno
kada o tebi ne razmisljam
stvarno se osecam odlicno

e----------
h----------
g----------
d----------
a--0-2-3-4-
e----------

Dm            C
a kada padne noc
B            C
ja zovem u pomoc
C             B     Dm
jer tebe nema tu uuuu

e-------------------------------------------
h-------------------------------------------
g--7-9-7-5-7--------------15b17r15p13-15----
d----------------------------------------14-
a-------------------------------------------
e-------------------------------------------

Dm          C
svaki novi dan
B               B
ko smrt je dosadan
C             B     Dm
jer tebe nema tu uuuu

e--------------
h--------------
g--7-9-7-5-7---
d--------------
a--------------
e--------------
                  Am                       G
e---------------------------------------------------------------
h---------------------------------------------------------------
g-------------5------------------5------------------------------
d----------5-----7~~----------5----5-7~~------------------------
a-----5h7----------------5h7--------------5h7-------------------
e--2/5----------------/5----------------------------------------
                       Dm                             Am
e---------------------------------------------------------------
h-------------------------8b10~~----8b10-10---------------------
g-------------5--7~~5------------------------7b9r7/5--7b9-7b9---
d----------5-----------7~~--------------------------------------
a-----5h7-------------------------------------------------------
e--/5-----------------------------------------------------------

nisam dripac ni probisvet
i ni zbog ceg nije me stid
imam svoj mali svet
i oko njega kineski zid

sunce izlazi i zalazi
sve je kao i obicno
kada o tebi ne razmisljam
stvarno se osecam odlicno

e----------
h----------
g----------
d----------
a--0-2-3-4-
e----------


a kada padne noc
ja zovem u pomoc
jer tebe nema tu

e-------------------------------------------
h-------------------------------------------
g--7-9-7-5-7--------------15b17r15p13-15----
d----------------------------------------14-
a-------------------------------------------
e-------------------------------------------

svaki novi dan
ko smrt je dosadan
jer tebe nema tu

e--------------
h--------------
g--7-9-7-5-7---
d--------------
a--------------
e--------------

    pa ide solo gitara imate u gp3 i solo i pratnju, bilo mi 
    je mucno da prepisujem :)


a kada padne noc
ja zovem u pomoc
jer tebe nema tu
                         T(udarite prstom 19 polje)
e------------------------19p17p15p13------
h------------------------------------15---
g--7-9-7-5-7------------------------------
d-----------------------------------------
a-----------------------------------------
e-----------------------------------------

svaki novi dan
ko smrt je dosadan
jer tebe nema tu

e--------------
h--------------
g--7-9-7-5-7---
d--------------
a--------------
e--------------
                  Am                       G
e---------------------------------------------------------------
h---------------------------------------------------------------
g-------------5------------------5------------------------------
d----------5-----7~~----------5----5-7~~------------------------
a-----5h7----------------5h7--------------5h7-------------------
e--2/5----------------/5----------------------------------------
                       Dm
e-----------------------------------------------------
h-------------------------8b10~~----8b10-10-----------
g-------------5--7~~5------------------------7b9r7/5--
d----------5-----------7~~----------------------------
a-----5h7---------------------------------------------
e--/5-------------------------------------------------

e------8-7-5----------------------------------
h------------5--------------------------------
g--------------7-5----------------------------
d---------------------------------------------
a------------------2/8-7-5-3-2----------------
e------------------------------3----------5---


***VERZIJA 6***
Transkripcija: Avatar

solo:
    Dm                       Am                      Gm
e|-----------------------------10--------------13-10-------
H|--13/15-13/15-13/15-13/15-13---13------------------13-10-
G|-----------------------------------12/14\12--------------
D|---------------------------------------------------------
A|---------------------------------------------------------
E|---------------------------------------------------------
                             C
e|----------------------------------------------------------
H|----------------------------------------------------------
G|-10_9_7_9-------------------------------------10-12/14\12-
D|----------5_7_5-3->5_7_5->3-5-----------10-12-------------
A|-------------------------------8->10-12-------------------
e|----------------------------------------------------------
         Dm
e|-------------------------12->17-17-17-17-20/22-20/22-
H|-----------------------------------------------------
G|-10-12-14-10----10-12--------------------------------
D|-------------12-------12-----------------------------
A|-----------------------------------------------------
E|-----------------------------------------------------

                                       Am
e|-20/22-20/22~-22\20_17------17-20-17-18-17-15-17-
H|-------------------------------------------------
G|-----------------------5/7-----------------------
D|-------------------------------------------------
A|-------------------------------------------------
E|-------------------------------------------------

e|--15_13_12-13-15-15-13-12--------------------
H|--------------------------15->17-13----15-13-
G|------------------------------------14-------
D|---------------------------------------------
A|---------------------------------------------
E|---------------------------------------------
                       Gm             C
e|----10-12-13-12/13-12/13--13\12_10--15_13_12-13-
H|-13-------------------------------13------------
G|------------------------------------------------
D|------------------------------------------------
A|------------------------------------------------
E|------------------------------------------------
             Dm
e|-17_13_12--------------------------------------
H|----------15->17-17_18_17_15-17/18\17_15----15-
G|-----------------------------------------17----
D|-----------------------------------------------
A|-----------------------------------------------
E|-----------------------------------------------