Riblja Corba - Kamenko I Kremenko

Transkripcija: Toma 3:16 (toma3-16@wanadoo.fr & toma3_16@msn.com)


-----------------------------------------
-----------------------------------------
3-5--3-2-3-5--3-5---3-5--3-2-------------  x4
3-5--3-2-3-5--3-5---3-5--3-2-5-3--2-3-5--
1-3--1-0-1-3--1-3---1-3--1-0-5-3--2-3-5--
-----------------------------3-1--0-1-3--

RIFF  G
      Video sam Kramenka
      ispred neprijatejskog tenka,
      pa kaze tenkovskoj cevi:
      "Idi pa se sevi!"

RIFF  G
      Video sam Kremenka
      kako se sa njima cenjka.
      Malo je takvih znalaca
      prilikom razmene talaca.

RIFF  C A# A  F   C  A# A  F
      Kamenko ja, Kremenko ja,
      G       F  G
      ponavljamo to
      G   F           E   F
      k'o Svaba "tra, la, la".
      C A# A  F   C  A# A  F
      Kamenko ja, Kremenko ja,
      G       F  G
      ponavljamo to
      G   F           E   F
      k'o Svaba "tra, la, la".

-----------------------------------------
-----------------------------------------
3-5--3-2-3-5--3-5---3-5--3-2-------------  x2
3-5--3-2-3-5--3-5---3-5--3-2-5-3--2-3-5--
1-3--1-0-1-3--1-3---1-3--1-0-5-3--2-3-5--
-----------------------------3-1--0-1-3--

RIFF  G
      Kamenko zauzima kuce
      cak i kada je nemoguce.
      Opali jedan metak
      i uzme coveku sav imetak.

RIFF  G
      Video sam Kremenka.
      Taj nije znao da kenjka.
      On je zaista imao jaja
      ispred njihovi polazaja.

RIFF  C A# A  F   C  A# A  F
      Kamenko ja, Kremenko ja,
      G       F  G
      ponavljamo to
      G   F           E   F
      k'o Svaba "tra, la, la".
      C A# A  F   C  A# A  F
      Kamenko ja, Kremenko ja,
      G       F  G
      ponavljamo to
      G   F           E   F
      k'o Svaba "tra, la, la".

SOLO + RIFF  G

-----------------------------------------
-----------------------------------------
3-5--3-2-3-5--3-5---3-5--3-2-------------  x2
3-5--3-2-3-5--3-5---3-5--3-2-5-3--2-3-5--
1-3--1-0-1-3--1-3---1-3--1-0-5-3--2-3-5--
-----------------------------3-1--0-1-3--

RIFF  G
      Kada heroju Kamenku
      date obicnu zensku,
      onda on tri kuce popali
      pa je opali.

RIFF  G
      Cestitke nasem junaku Kremenku.
      On je ubio rodenu senku
      i dobitnik je vise medalja,
      sto dokazuje da on valja.

RIFF  C A# A  F   C  A# A  F
      Kamenko ja, Kremenko ja,
      G       F  G
      ponavljamo to
      G   F           E   F
      k'o Svaba "tra, la, la".
      C A# A  F   C  A# A  F
      Kamenko ja, Kremenko ja,
      G       F  G
      ponavljamo to
      G   F           E   F
      k'o Svaba "tra, la, la".

-----------------------------------------
-----------------------------------------
3-5--3-2-3-5--3-5---3-5--3-2-------------     
3-5--3-2-3-5--3-5---3-5--3-2-5-3--2-3-5--
1-3--1-0-1-3--1-3---1-3--1-0-5-3--2-3-5--
-----------------------------3-1--0-1-3--

----------------------------------
----------------------------------
3-5--3-2-3-5--3-5---3-5--3-2------
3-5--3-2-3-5--3-5---3-5--3-2-3-5--
1-3--1-0-1-3--1-3---1-3--1-0-3-5--
-----------------------------1-3--