Riblja Corba - Ko Ce Koga

Transkripcija: Toma 3:16 (toma3-16@wanadoo.fr)


9-7-5-7--9-7-5-7-5-9-5--9-7-5-7--9-7-5-7-4-5~--
-----------------------------------------------
-----------------------------------------------
-----------------------------------------------
-----------------------------------------------
-----------------------------------------------

RIFF  A     E                A
      Ko ce koga,ako ne svoj svoga.
      A           E             A
      Svestenikov sin ne zna za boga.
      A       E            A
      Stoka u stanju da ubije 
      A     E        A
      i ovo malo Srbije.

9-7-5-7--9-7-5-7-5-9-5--9-7-5-7--9-7-5-7-4-5~--
-----------------------------------------------
-----------------------------------------------
-----------------------------------------------
-----------------------------------------------
-----------------------------------------------

RIFF  A      E         A
      Sta tu ima da se taji,
      A   E           A
      Srbija na rasprodaji!
      A    E        A
      Moze i na poverenje,
      A       E        A
      za budzasto u bescenje.

9-7-5-7--9-7-5-7-5-9-5--9-7-5-7--9-7-5-7-4-5~--
-----------------------------------------------
-----------------------------------------------
-----------------------------------------------
-----------------------------------------------
-----------------------------------------------

RIFF  B
      I mada nisam stariji
      C#           D    A
      dacu savet nistariji:


RIFF   D             A
      "Ispod zemlje, kao rovci,
       D       A
       paunica i njen paun.
       D            A
       Mesto:bunker Dobanovci,
       B            E
       k'o Hitler i Eva Braun.
       D             A
      "Ispod zemlje, kao rovci,
       D       A
       paunica i njen paun.
       D            A
       Mesto:bunker Dobanovci,
       B            E
       k'o Hitler i Eva Braun.

9-7-5-7--9-7-5-7-5-9-5--9-7-5-7--9-7-5-7-4-5~--
-----------------------------------------------
-----------------------------------------------
-----------------------------------------------
-----------------------------------------------
-----------------------------------------------

RIFF   A      E          A
       Ne, to nije nista licno,
       A     E        A
       to im dode porodicno
       A       E       A
       i mozda ce tako spasti
       A    E          A
       neko malo zrnce casti.

9-7-5-7--9-7-5-7-5-9-5--9-7-5-7--9-7-5-7-4-5~--
-----------------------------------------------
-----------------------------------------------
-----------------------------------------------
-----------------------------------------------
-----------------------------------------------

RIFF   A     E          A
       Bivsi bankar i trgovac
       A   E         A
       veliki je mirotvorac,
       A   E          A
       veseli su on i zena
       A   E      A
       Nikolae i Elena.

9-7-5-7--9-7-5-7-5-9-5--9-7-5-7--9-7-5-7-4-5~--
-----------------------------------------------
-----------------------------------------------
-----------------------------------------------
-----------------------------------------------
-----------------------------------------------

RIFF  B
      I mada nisam stariji
      C#           D    A
      dacu savet nistariji:


RIFF   D             A
      "Ispod zemlje, kao rovci,
       D       A
       paunica i njen paun.
       D            A
       Mesto:bunker Dobanovci,
       B            E
       k'o Hitler i Eva Braun.
       D             A
      "Ispod zemlje, kao rovci,
       D       A
       paunica i njen paun.
       D            A
       Mesto:bunker Dobanovci,
       B            E
       k'o Hitler i Eva Braun.

9-7-5-7--9-7-5-7-5-9-5--9-7-5-7--9-7-5-7-4-5~--
-----------------------------------------------
-----------------------------------------------
-----------------------------------------------
-----------------------------------------------
-----------------------------------------------

RIFF   D             A
      "Ispod zemlje, kao rovci,
       D       A
       paunica i njen paun.
       D            A
       Mesto:bunker Dobanovci,
       B            E
       k'o Hitler i Eva Braun.

9-7-5-7--9-7-5-7-5-9-5--9-7-5-7--9-7-5-7-4-5-5-5--
--------------------------------------------------
--------------------------------------------------
--------------------------------------------------
--------------------------------------------------
--------------------------------------------------