Riblja Corba - Ljubav Ovde Vise Ne Stanuje

Transkripcija: Aca Urosevic - Aca_Urosevic@yahoo.com


Uvod(nista tesko):
   Em
E-----------------------------------------|
H-----------------------------------------|
G-----------------------------------------|
D-----------------------------------------|
A--5s7-10~~-5s7-7~~-5s7-7s10-10~~-5s7-7~~-|
E-----------------------------------------|
       Am                 Em
E-----------------------------------------|
H-----------------------------------------|
G-----------------------------------------|
D-----------------------------------------|
A--5s7-10~~-5s7-7~~-5s7-7s10-10~~-5s7-7~~-|
E-----------------------------------------|

Tekst i akordi:
Em
Evo, priznajem!Nije mi lako,
Al' nije slavno plakati javno.
      Am
Ti me ostavljas tek onako,
         Em
Al' nema placa ispod pokrivaca...

Od tebe bolestan, bezuspesno lecen,
Ne, suze moje ne postoje.
Malo sam zbunjen i zatecen,
To mi se samo oci znoje.

Ref:
    D
Ne, nisam
        A
Ni suzu pustio
  D
A moje srce na dlanu je,
G             D              
Samo sam tiho izustio:
        G            A 
"Ljubav ovde vise ne stanuje..."(sve ovo 2x)

Seo sam u cosak i nisam plakao,
Nista iz ociju nisam istakao
Sem jedne suze koju sam ti posvetio
Valjda me niko nije primetio...itd.

Solo:
   A          D              A                                           
E------------s14-14--------------|
H-------------------17-15^17-17--|
G--s14-14-14---------------------|
D--------------------------------|
A--------------------------------|
E--------------------------------|

           D                             A
E---------s14-14-14-15-17-15^17^15^14-------|
H----15-17----------------------------17-17-|
G-14----------------------------------------|
D-------------------------------------------|
A-------------------------------------------|
E-------------------------------------------|
              
               G                    D                            
E--------------15----------19-17-15-17-15------|
H-s15-15-15-15----15-15-15----------------19-15|
G----------------------------------------------|
D----------------------------------------------|
A----------------------------------------------|
E----------------------------------------------|

  G                  A  
E-15--------19-17-15-17-19-21-21-19-21-|
H---15-15-15---------------------------|
G--------------------------------------|
D--------------------------------------|
A--------------------------------------|
E--------------------------------------|
   A
   T        T          T        T          T        T          T        T  
E--17^14^10-17^10^9^10-17^14^10-17^10^9^10-17^14^10-17^10^9^10-17^14^10-17^10^9^10-
H----------------------------------------------------------------------------------
G----------------------------------------------------------------------------------
D----------------------------------------------------------------------------------
A----------------------------------------------------------------------------------
E----------------------------------------------------------------------------------
   D
   T        T          T        T          T        T          T        T  
E----------------------------------------------------------------------------------|
H--17^14^10-17^10^9^10-17^14^10-17^10^9^10-17^14^10-17^10^9^10-17^14^10-17^10^9^10-|
G----------------------------------------------------------------------------------|
D----------------------------------------------------------------------------------|
A----------------------------------------------------------------------------------|
E----------------------------------------------------------------------------------|

(ova taping deonica ponavlja se 2 puta)

   G                               D
{---------------------------alternate----------------------------}
E----------------------------------------------------------------|
H----------------------------------------------------------------|
G-------------------------------------------9----9-11-9-12-11-12-|
D-------------------9----9-11-9-11-12-11-12---12-----------------|
A--10-9-10-12-10-12---12-----------------------------------------|
E----------------------------------------------------------------|
  
  G                       A
E-------------12^14-12----12-14-15-15s17~~~~~~~~-|
H----10-12-14----------15------------------------|
G-12---------------------------------------------|
D------------------------------------------------|
A------------------------------------------------|
E------------------------------------------------|

Objasnjenje:
s-slide
^-hammer on ili pull off
~-vibrato
T iznad note znaci da se radi taping(lupkanje po zici jagodicom prsta
desne ruke, noktom ili trzalicom na oznacenom pragu)
Alternate sam vec objasnio sta je...(naizmenicno gore-dole trzanje)

(I na kraju pesme, ono srceparajuce "Ne stanuje..." ispratite sa 
razlaganjem D.
To bi bilo to!)


***VERZIJA 2**
Transkripcija: Mrsa Vanja (vanja.mrsa@freesurf.ch)

Intro: Dm  Gm   Dm

Dm
Evo priznajem nije mi lako,
a nije slavno plakati javno,
      Gm
ti me ostavljas tek onako,
         Dm
al' nema placa ispod pokrivaca.

Dm
Od tebe bolestan,
bezuspesno lecen,
ne,suze moje ne postoje,
         Gm
malo sam zbunjen i zatecen,
        Dm
meni se samo oci znoje.

REF:
   C             G
Ne,nisam ni suzu pustio,
  C            G
a moje srce na dlanu je,
F             C        
samo sam tiho izustio
        F            G
-ljubav ovde vise ne stanuje

Seo sam u cosak i nisam plakao,
nista iz ociju nisam istakao,
sem jedne suze,
koju sam ti posvetio,
valjda me niko nije primetio.

Evo priznajem nije mi lako,
a nije slavno plakati javno,
ti me ostavljas tek onako,
al' nema placa ispod pokrivaca.

Ne nisam ni suzu pustio,
a moje srce na dlanu je
samo sam tiho izustio
ljubav ovde vise ne stanuje

***VERZIJA 3***
Transkripcija: Laza (l_cane@ptt.yu)
Album        : Pisanje uz vetar

Dm
Evo priznajem nije mi lako
Dm
al nije slavno plakati javno
      Gm
ti me ostavljas tek onako
Dm
al nema placa ispod pokrivaca.

Od tebe bolestan, bezuspesno lecen
nek suze moje nepostoje
malo sam zbunjen, i zatecen
meni se samo oci znoje.

REF:
C                 G 
Ne, nisam ni suzu pustio
  C            G
a moje srce na dlanu je
F             C
samo sam tiho izustio 
       F           G
ljubav ovde vise ne stanuje.

Seo sam u cosak i nisam plakao
nista iz ociju nisam istakao
sve nezne suze koje sam ti posvetio
valjda me niko nije primetio.

Evo priznajem nije mi lako
al nije slavno plakati javno	
ti me ostavljas tek onako
al nema placa ispod prekrivaca.