Riblja Corba - Ljuti Rokenrol

Transkripcija: Toma 3:16 (toma3-16@wanadoo.fr & toma3_16@msn.com)


intro:
--------------------------------
--------------------------------
--------------------------------x3
---7---7-7-7-7-7-7-7-7-7-7-7-7--
-7---7-7-7-7-7-7-7-7-7-7-7-7-7--
-------5-5-5-5-5-5-5-5-5-5-5-5--
 D     A

------------------
------------------
------------------
-5-4-5-4-5-4-3-2--
-5-4-5-4-5-4-3-2--
-3-2-3-2-3-2-1-0--

--------------------------------
--------------------------------
--------------------------------x4
---7---7-7-7-7-7-7-7-7-7-7-7-7--
-7---7-7-7-7-7-7-7-7-7-7-7-7-7--
-------5-5-5-5-5-5-5-5-5-5-5-5--
 D     A

RIFF  D                        A
      Rekli su mi, mali slusaj starije
      D                              A
      Rekli su mi, mali, ne pravi pizdarije
      D                      A
      Rekli su mi, mali budi dobar
      D                       E
      A za njih je dobar samo grobar.

RIFF            A D  A    D          A
      Ja sviram rokenrol, ljuti rokenrol
      A D  A    D          E
      Rokenrol, ljuti rokenrol.

RIFF  A

RIFF  D                     A
      Zbog svoga zivotnog iskustva
      D                  A
      Meni su propisali uputstva
      D                 A
      Matori gresnici i sveci
      D                   E
      Lupaju cvrge svojoj deci.

RIFF            A D  A    D          A
      Ja sviram rokenrol, ljuti rokenrol
      A D  A    D          A
      Rokenrol, ljuti rokenrol.
      A D  A    D          A
      Rokenrol, ljuti rokenrol.
      A D  A    D          E
      Rokenrol, ljuti rokenrol.