Riblja Corba - Lud 100%

Transkripcija: Ivan Djacic (djacic@yahoo.com)


intro: H A E F#
uvod: H A E F# 2x, G#m G#m (F#) G#m

G#m                  (F#)
Napolju grad od pola kila
C#             F#         G#m    (F#) G#m
Ja cekam svoga ljubljenog debila
G#m                       (F#)
Dezurni pandur i ja smo jedini
   C#         F#  G#m      (F#) G#m
Na arlaudzi i vukojebini

I sam se pitam gde mi je pamet
Pa da izadem na ovaj kijamet
Pici kisa, ja po kisi picim
Samom sebi ni na sta ne licim

preref:
C#                 H 
Svasta mi obecava, a napolju mecava
A
Stanje se pogorsava, jer pocinje kosava

ref:
H                    A
Bio bi lud sto posto kada bi kraj tebe osto
E                    F#
Ti nikad nisi kacila koliko si mi znacila

< strofa 1, 2>
< preref>
< ref>
< solo: G#m C# 4x D#>

H        A        E        F#
Uuu-uaua-uuu-uaua-uuu-uaua-uuu 2x

< ref>

H
Bio bi lud... 
A
Bio bi lud, lud, lud, lud, lud...
E
Bio bi lud...
F#
Bio bi lud lud lud lud...
H
Mama lud sam ja
A
Mama skroz sam lud
E
Sto posto, sto posto
F#
Sto posto lud
      H
Skroz lud...

                 ^  ^
/--------------( *  * )--------------\
|====================================|
|        < DjAkOn   StRaSnI >        |
|     CrambambulyPunch@yahoo.com     |
|    CrambambulyPunch@popstar.com    |
\------------------------------------/
 
***VERZIJA 2***
Transkripcija: Spetz (p_aleksandar@yahoo.com)

Intro sint

Napisao sam ga za oktavu nize, lakse svirati, a ako neko bas hoce nek 
svira za 12 pragova gore.
                                                        
E||------------------------|---------------------------|
B||--4----5--5--4----4--4--|--4--5--7--5--4----7-7-5-5-|
G||--4----4--4--4----4--4--|--4--4--4--4--4----6-6-4-4-|
D||--4----4--4--4----6--6--|--6--6--6--6--6----8-8-6-6-|
A||------------------------|---------------------------|
E||------------------------|---------------------------|

|-------------------------|----------------4--2--2--||
|--4--4--2--2----2--2--2--|--2--4--2--2----5--2--2--||
|--4--4--3--3----3--3--3--|--3--4--3--3----4--3--3--||
|--4--4--4--4----4--4--4--|--4--4--4--4-------------||
|-------------------------|-------------------------||
|-------------------------|-------------------------||

Intro gitara
E||---------------------------|---------------------------|
B||---------------------------|---------------------------|
G||-------7--6h7p6------------|-------7--6h7p6------------|
D||--7/9-----------9--9--7----|--7/9-----------9--9--7----|
A||---------------------------|---------------------------|
E||---------------------------|---------------------------|

|---------------------------|--------------------------|
|---------------------------|--7-----------------------|
|-------7--6h7p6------------|-----9--7--6--9--7--6-----|
|--7/9-----------9--9--7----|-----------------------9--|
|---------------------------|--------------------------|
|---------------------------|--------------------------|
                                                                     
|---------------------------|-----------14------14----------------------|
|---------------------------|--------------12---------------------------|
|--7--6-----------6--7p6----|------7------------------------------------|
|--------9--7--9---------9--|--7/9----9---------------11h12p11----11----|
|---------------------------|----------------------14----------14----14-|
|---------------------------|-------------------------------------------|

|----------------------------------|----------------------------------|
|----------------------------------|----------------------------------|
|------7---6h7p6---7---6h7p6---6---|------7---6h7p6---7---6h7p6---6---|
|--7/9---9-------9---9-------9---9-|--7/9---9-------9---9-------9---9-|
|----------------------------------|----------------------------------|
|----------------------------------|----------------------------------|

|--------------------------|---------------------------||
|--7-----------------------|---------------------------||
|-----9--7--6--9--7--6-----|--7--6-----------6--7p6----||
|-----------------------9--|--------9--7--9---------9--||
|--------------------------|---------------------------||
|--------------------------|---------------------------||

Rif strofe
E||-----------------------------------------------------------------------|
B||---------------------4----6--------------------------------------------|
G||---------------------4----6--------------------------------------------|
D||-------------6-------4----6----------------------6----6--4-------------|
A||--6----4--5-----6--------------6----4----5------------------6--5--4--2-|
E||--4-------------4--------------4---------------------------------------|

|-----------------------|--------------------|
|-----------------4-----|--6-----------------|
|-----------------4-----|--6--------3--------|             
|--6----6----6----4--6--|--6--------4--------|           
|--6----6----6-------6--|--4--------4--------|
|--4----4----4-------4--|-----------2--------|            
  
  Napolju grad ....                             (i tako se ponavlja)


h - hammer on
p - pull of
/ - slide