Riblja Corba - Lupa Bubanj, Zveci Zvecka

Transkripcija: Toma 3:16 (toma3-16@wanadoo.fr & toma3_16@msn.com)


F#             A    F#             A    F#             A    F#             A    
--------------------------------------------------------------------------------
------------17-14~----------------------------------17-14~----------------------
11-13-14-16---------11-13-14-16-14-11~--11-13-14-16---------11-13-14-16-14-11~--
--------------------------------------------------------------------------------
--------------------------------------------------------------------------------
--------------------------------------------------------------------------------

F#        A       F#        A
-------------------------------
-------------------------------
9^9^9^8^8^8^6^6^6^4^4^4^2^2^6~-
-------------------------------
-------------------------------
-------------------------------

RIFF   F#           A
       Lupa bubanj, zveci zvecka
       F#            A
       Bulji marva radoznala
       F#            A
       Sta je, mozda igra mecka
       F#           A
       Banda svira: Tra la, la la.

RIFF   F#   A  (x2)

   D       A      E
Da nastupi bio je sprecen
D     A    E
Gutac plamena
D           A       E
Jezik mu je sveze ispecen

         D
Trazi se zamena.     
         Bm
Trazi se zamena.    
         A
Trazi se zamena.  
         E
Trazi se zamena.  

F#             A    F#             A    F#             A    F#             A    
--------------------------------------------------------------------------------
------------17-14~----------------------------------17-14~----------------------
11-13-14-16---------11-13-14-16-14-11~--11-13-14-16---------11-13-14-16-14-11~--
--------------------------------------------------------------------------------
--------------------------------------------------------------------------------
--------------------------------------------------------------------------------

F#        A       F#        A
-------------------------------
-------------------------------
9^9^9^8^8^8^6^6^6^4^4^4^2^2^6~-
-------------------------------
-------------------------------
-------------------------------

RIFF   F#      A
       Vidi ofucanog tigra
       F#           A
       S necijom se rukom igra
       F#       A
       U zubima starog lava
       F#        A
       Dreserova visi glava. Ha ha ha ha haa !

RIFF   F#   A  (x2)

   D       A      E
Da nastupi bio je sprecen
D     A    E
Gutac plamena
D           A       E
Jezik mu je sveze ispecen

         D
Trazi se zamena.     
         Bm
Trazi se zamena.    
         A
Trazi se zamena.  
         E
Trazi se zamena.  

F#             A    F#             A    F#             A    F#             A    
--------------------------------------------------------------------------------
------------17-14~----------------------------------17-14~----------------------
11-13-14-16---------11-13-14-16-14-11~--11-13-14-16---------11-13-14-16-14-11~--
--------------------------------------------------------------------------------
--------------------------------------------------------------------------------
--------------------------------------------------------------------------------

F#        A       F#        A
-------------------------------
-------------------------------
9^9^9^8^8^8^6^6^6^4^4^4^2^2^6~-
-------------------------------
-------------------------------
-------------------------------

RIFF   F#        A 
       Zena pala sa trapeza
       F#            A
       Dal' je mrtva il' se zeza
       F#       A
       Veselo pucketa vatra
       F#         A
       Pa to gori nasa satra.

RIFF   F#   A  (x2)

   D       A      E
Da nastupi bio je sprecen
D     A    E
Gutac plamena
D           A       E
Jezik mu je sveze ispecen

         D
Trazi se zamena.     
         Bm
Trazi se zamena.    
         A
Trazi se zamena.  
         E
Trazi se zamena.