Riblja Corba - Milivoje Vatrogasac

Transkripcija: Toma 3:16 (toma3-16@wanadoo.fr


INTRO: --------------------------------
       -10--12------10-----------------
       ---------12------10--12--10--9--      x4
       --------------------------------
       --------------------------------
       --------------------------------

RIFF      A     G     D   F             E     
       ------------------------------------
       ---------------3~--6^6^6^-----------
       ---5~----4~--2-----------9^9^7^9^7--      x2   
       -7-----5----------------------------
       ------------------------------------
       ------------------------------------ 

RIFF   D             C D     
       Milivoje vatrogasac 
       D             C     B C D
       ponasa se kao prasac 
       D             C D
       drzi neke seminare
       D              E
       zaraduje sitne pare.

RIFF      A     G     D   F             E     
       ------------------------------------
       ---------------3~--6^6^6^-----------
       ---5~----4~--2-----------9^9^7^9^7--      x2     
       -7-----5----------------------------
       ------------------------------------
       ------------------------------------ 

RIFF   D             C D
       Milivoje vatrogasac
       D               C     B C D
       raste vazan kao kvasac
       D                C D
       sluzbenike da bi zezno
       D              E
       dode mu pod obavezno.

RIFF   E             C
       Milivoje, Milivoje
       G                 D
       dezurni si sve je tvoje.
       E               C
       Na uzbunu zvoni zvono 
       G            D D#
       Ti si DSZ i ONO.
       E             C
       Milivoje, Milivoje
       G               D
       dusmani se tebe boje.
       E              C
       Milivoje grizi gono 
       G            D D#
       Ti si DSZ i ONO.

RIFF      A     G     D   F             E     
       ------------------------------------
       ---------------3~--6^6^6^-----------
       ---5~----4~--2-----------9^9^7^9^7--      x2     
       -7-----5----------------------------
       ------------------------------------
       ------------------------------------ 

RIFF   D              C D
       Milivoje sitna dusa 
       D                C    B C D
       sanja neko da ga slusa
       D                 C  D
       cemu dzes da ucis dzake 
       D             E
       Milivoje brabonjake.

RIFF   E             C
       Milivoje, Milivoje
       G                 D
       dezurni si sve je tvoje.
       E               C
       Na uzbunu zvoni zvono 
       G            D D#
       Ti si DSZ i ONO.
       E             C
       Milivoje, Milivoje
       G               D
       dusmani se tebe boje.
       E              C
       Milivoje grizi gono 
       G            D D#
       Ti si DSZ i ONO.

SOLO + RIFF  A  G  D  F  E  (x4)

RIFF   E             C
       Milivoje, Milivoje
       G                 D
       dezurni si sve je tvoje.
       E               C
       Na uzbunu zvoni zvono 
       G            D D#
       Ti si DSZ i ONO.
       E             C
       Milivoje, Milivoje
       G               D
       dusmani se tebe boje.
       E              C
       Milivoje grizi gono 
       G            D D#
       Ti si DSZ i ONO.

RIFF
 A     G     D   F             E    A     G     D   F             E  
----------------------------------------------------------------------
---------------3~--6^6^6^-------------------------3~--6^6^6^----------
---5~----4~--2-----------9^9^7^9^7----5~----4~--2-----------9^9^7^9^7-
-7-----5----------------------------7-----5---------------------------
----------------------------------------------------------------------
----------------------------------------------------------------------

F             E  F             E A
------------------------------------
-6^6^6^-----------6^6^6^------------
-------9^9^7^9^7--------9^9^7^9^7^--
----------------------------------7~
------------------------------------
------------------------------------