Riblja Corba - Mobilni

Transkripcija: Vai
Album : Ovde (2003)


Intro : A 
A                    E
Jel' to mene neko na mobilni zovno?
D                    A        E
pao sam u sevdah k'o sljiva u govno
A                    E
pritisn'o sam 'yes' i rekao 'alo'
D              A      E 
a ona ce meni 'dolazi budalo'

REF: 

A          D    A       E
Titovi smo bili mali pioniri 
D                  A        E 
a njoj jos od tada iz ociju viri 

Sada ide mali solo nakon refrena,
nesto odprilike ovako : 

       A                      E                                 
E||---------------------|----------------------|
B||---------------------|----------------------|
G||----6--6---7---9---7-|-6-----------6---7~---|
D||---------------------|-----9---9------------|
A||---------------------|----------------------|
E||---------------------|----------------------|

  D                           A                E                
----------------------|----------------|------------||
----------------------|----------------|------------||
--7----7------7--7h-6-|----------------|--6---------||
--7----7------7--7----|---9---7---9----|-------9~---||
----------------------|----------------|------------||
----------------------|----------------|------------||

A ja nisam nista od godine lanske
uz'o sam viagru i musice spanske
ona na tanjiru 'oce da mi dadne
sta ako mi alat usred posla padne?

REF. 2X

SOLO

Znam probirac nije i da nema oci
sta ako uopste nece da mi skoci?
Neka joj ga stavi neki drugi lik
jer dostupan nije ovaj pretplatnik

REF. 2X

SOLO 

REF. 2x 

KRAJ!