Riblja Corba - Mrtvo More

Transkripcija: Vai
Album        : Ovde


Intro solo: 
     C                                       Dm 
E||------------------------|--------------|------------------------|
B||--5----5----5h6----5----|--5-5--5h6--5-|--6----6----6h8----6----|
G||------------------------|--------------|------------------------|
D||------------------------|--------------|------------------------|
A||------------------------|--------------|------------------------|
E||------------------------|--------------|------------------------|

                   C                                                     
----------------|------------------------|-----------------------------|
--6--6--6h8--6--|--5----5----5h6----5----|--5----5----6----5h6h5-------|
----------------|------------------------|-----------------------7--5~-|
----------------|------------------------|-----------------------------|
----------------|------------------------|-----------------------------|
----------------|------------------------|-----------------------------|

                 B     C     B     C                        
--------------------|-----|-----|-----||
--------------------|-----|-----|-----||
--7h-5--4h-5--7--4~-|--5~-|--4~-|--5~-||
--------------------|-----|-----|-----||
--------------------|-----|-----|-----||
--------------------|-----|-----|-----||

C
Budim se ujutru mrtav i hladan,
Dm
sedam u camac u ranu zoru,
C
narod na obali ceka gladan,
                        B C   B  C 
dok lovim ribu u Mrtvom moru.

Znojim se,kopam,mnogo sam vredan,
zelim da pomognem svome rodu,
narod na pesku ceka zedan,
dok u Sahari trazim vodu.

REF: 
Dm
Nasmesim se,al' za minut
F             Am
budem tuzan i zabrinut.
Dm
Nasmesim se,al' ne vredi,
F                Am     B  C 
osmeh se na licu sledi.

Intro solo 

Okov na rukama,jaram na vratu,
kako da spasem zrtvene janjce,
suznji cekaju u kazamatu
da im ziletom presecem lance.

Zemlja je postala veliki bordel,
sve su nas odveli na lobotomiju,
mi smo prevazidjen,zastareli model,
slomljenom nemaju sta da slomiju.

REF.
SOLO. 
REF. 2X
KRAJ.