Riblja Corba - Neke Su Zene Pratile Vojnike

Transkripcija: Mr.Z  mr.z@mindless.com
Home         : http://2akordi.net/


 INTRO: |Dm    |F7  F  |A   |G    |

 Dm                          F
 Sad mi tvoje oci tako mnogo znace
 A                           G
 I kao kroz maglu redaju se slike
 Dm                     F
 Hej masino, pusti paru jace
 A                       G
 Neke su zene pratile vojnike.

 F                             Bb
 A sebe bih na poklon dao bilo kome
     F           Gm           F
 Jer niko od vas ne zna moje brodolome.

 Znam, cmizdrili nisu junaci sa Sparte
 Srecom, u kupeu niko pored mene
 Dobro vece, dobro vece, molim vase vozne karte
 Trebaju mi nocas neke drage zene.

 A sebe bih na poklon dao bilo kome
 Jer niko od vas ne zna moje brodolome.

 Citav vagon smrdi od prljavih nogu
 Piletina, pivo, pijani kreteni
 Psujem mater onom pokvarenom bogu
 Zasto su se kola slomila na meni.

 A sebe bih na poklon dao bilo kome
 Jer niko od vas ne zna moje brodolome.


***VERZIJA 2***
Transkripcija: Milutin Arnautovic (arnie@bankerinter.net)
Home         : http://www.tablature.co.yu


  Dm                 F                    A B C  G
+-------1-0-3-1-0----------1---------------------2---------
|-----3-----------3------1---1h3-1-----3--2-3-5--2--6p5-3--
|---2------------------2-----------1-2-----------0---------
|-0------------------3--------------------2-3-5------------
|----------------------------------------------------------
+----------------------------------------------------------
                                       * 1 ?

(ovo se svira uz prve 2 strofe, uz 3. su akordi, a uz 2. ovo i,
 mislim, bas. Takodje, uz prvo ponavljanje refrena ide neko lepo
 razlaganje, ali nisam mogao da ga skuzim :( Ko zna, nek vikne.)

Sad mi tvoje oci tako mnogo znace
i kao kroz maglu redjaju se slike,
hej, masino, pusti paru jace,
neke su zene pratile vojnike.

Znam cmizdrili nisu junaci sa Sparte,
srecom u kupeu nikog pored mene
- Dobro vece, molim vase vozne karte,
trebaju mi nocas neke drage zene.

Dm                   F
Citav vagon smrdi od prljavih nogu,
A                         G
piletina, pivo, pijani kreteni,
Dm                F
psujem mater onom pokvarenom Bogu
A                           G
zasto su se kola slomila na meni?

refren:
F                             B
A sebe bih na poklon dao bilo kome
F               Gm     F
jer niko od vas ne zna moje brodolome.


***VERZIJA 3***
Transkripcija: ParadoX


UVOD:
   d-mol                 Fmaj7+                       Gdur
-------1-0-3-1-0h1-0----------1--1---------------------3--------------
-----3---------------3------1----1h3-1-----1--2--3--5--3------5?-3----
---2------------------2---2------2-----1h2-------------4--------------
-0----------------------3--------------3---------------5--------------
----------------------------------------------0--2--4--5--------------
-------------------------------------------------------3--------------