Riblja Corba - Nemoj Da Ides Mojom Ulicom

Transkripcija: Djolle Amnesia


Intro: D bass(A,H,C#)

D                bass(A,H,C#)
Ti me mnogo zezas i okolo svrljas
D                bass(A,H,C#)
Bogami me ne znas, pa ce da nadrljas.
D             A          Hm G
Zato nemoj da ides mojom ulicom
D        A         Hm A    Hm
Nemoj da ides mojom ulicom
  A              Hm
E nemoj, stvarno nemoj
            A        Hm A Hm
Ni u ludilu nemoj, mojom ulicom.


Kupio sam pistolj kod svercera na crno
Na tebe cu rado da potrosim zrno
Stvarno nemoj da ides mojom ulicom
Nemoj da ides mojom ulicom
E nemoj, stvarno nemoj
Ni u ludilu nemoj, mojom ulicom.

Mozes da me tuzis za ozbiljnu pretnju
Ali ipak pazi kad podes u setnju.
Tada nemoj da ides mojom ulicom
Nemoj da ides mojom ulicom
E nemoj, stvarno nemoj
Ni u ludilu nemoj, mojom ulicom.

Zasto da se mucim, da zbog tebe patim
Najbolje ce biti za glavu da te skratim.
Ipak nemoj da ides mojom ulicom
Nemoj da ides mojom ulicom
E nemoj, stvarno nemoj
Ni u ludilu nemoj, mojom ulicom.

***VERZIJA 2***
Transkripcija: ????
Poslao       : Marko (lade@bendroz.ca)
Home         : ????


D
Ti me mnogo zezas i okolo svrljas
D
Bogami me ne znas, pa ce da nadrljas.
D             A          Bm G
Zato nemoj da ides mojom ulicom
D        A          Bm G
Nemoj da ides mojom ulicom
  D      A       D
E nemoj, stvarno nemoj
A           D      A     Bm G
Ni u ludilu nemoj, mojom ulicom.


Kupio sam pistolj kod svercera na crno
Na tebe cu rado da potrosim zrno
Stvarno nemoj da ides mojom ulicom
Nemoj da ides mojom ulicom
E nemoj, stvarno nemoj
Ni u ludilu nemoj, mojom ulicom.

Mozes da me tuzis za ozbiljnu pretnju
Ali ipak pazi kad podes u setnju.
Tada nemoj da ides mojom ulicom
Nemoj da ides mojom ulicom
E nemoj, stvarno nemoj
Ni u ludilu nemoj, mojom ulicom.

Zasto da se mucim, da zbog tebe patim
Najbolje ce biti za glavu da te skratim.
Ipak nemoj da ides mojom ulicom
Nemoj da ides mojom ulicom
E nemoj, stvarno nemoj
Ni u ludilu nemoj, mojom ulicom.


***VERZIJA 3***
Transkripcija: Dusan Djordjevic duka


info:dosad niko nije poslao solo koji se izvodi na usnoj harmonici
     pa sam resio da ga tab-ujem,solo je lak a prilicno dobro zvuci
     na gitari,bar meni!

solo:
e------------------------------------------------------------------
h-7-7-77----------------7-7-77-------------------------------------
g-------9-7-6-7---------------9-7-6-7------------------------------
d------------------------------------------------------------------
a------------------------------------------------------------------
e------------------------------------------------------------------

e------------------------------------------------------------------
h------777-9-7-----7--------------777-9-7-----7--------------------
g-6-7-9--------999--9--7-6---6-7-9--------999--9-6-7-9-------------
d--------------------------9---------------------------------------
a------------------------------------------------------------------
e------------------------------------------------------------------

strofa: D
most: D , A , h , A , h

refren:
e------------------------------------------------------------------
h------------------------------------------------------------------
g-------2-------2-------------------------2-------2----------------
d-22----2-22----2----444-2--444-2---22----2-22----2-----4---2---4--
a-00-2^3--00-2^3-----222-0--222-0---00-2^3--00-2^3------2---0---2--
e------------------------------------------------------------------
 nemoj...     stvarno nemoj... ni u ludilu nemoj mojom  u - li - com

 to bi bilo to,sve primedbe i dopune su dobrodosle