Riblja Corba - Nocas Gubim Mec

Transkripcija: Dr.kac   e-mail: maric04@yahoo.com


  Gtr I
  E S S E E  E S S E E  E S S E E E E E E
|---------------------------------0-----------||
|-------1----------0----------3-----3---3----o||
|-----2----------0----------2---2-----2-------|| 2 puta
|---2----------2----------0-------------------|| 
|-0-------0----------------------------------o||
|------------3-------3--2---------------------||


  E S S E E  E S S E E  E S S E E E E  E E E S S E E  E S S E E
|-------1----------1--------------1------------------------------|
|-----3----------1------------3-----3------------1----------3----|
|---2----------2------------2---2--------------0----------2------|
|-0-------0---------------0------------------2----------0--------|
|------------3-------3--2--------------0-2-3-------3--2-------2--|
|----------------------------------------------------------------|


  E S S E E  E S S E E  E S S E E E E E E  E S S E E E E E E
|---------------------------------0------------------0----------|
|-------1----------1----------3-----3---3--------3-----3---3----|
|-----2----------0----------2---2-----2--------2---2-----2------|
|---2----------2----------0------------------0------------------|
|-0-------0-----------------------------------------------------|
|------------3-------3--2------------------1--------------------|


   E S S E E E E E E  E S S E E E E E E
|------------0------------------0----------|
|--------3-----3---0--------0-----0---0----|
|------2---2-----2--------1---1-----1------|
|----0------------------2------------------|
|------------------------------------------|
|--1------------------0--------------------|

Onaj deo pre violina nisam skidao, a inace lepo zvuci...

 
Refren:
Ovo su akordi, samo treba odslusati taj deo u pesmi da bi se znala
njihova duzina trajanja... 
|--------------------------------------------------------|
|--------------------------------------------------------|
|------------------------------------------------------1-|
|-7--5--12---7--5--12---12--10--9---10--9--7--5--4--3--2-|
|-7--5--12---7--5--12---12--10--9---10--9--7--5--4--3--2-|
|-5--3--10---5--3--10---10---8--7----8--7--5--3--2--1--0-|


E - osmine
S - sesnaestine