Riblja Corba - Odlazak U Grad

Transkripcija: Aca Urosevic - Aca_Urosevic@Yahoo.com



Figura 1:Uvod i prelazi

   Hm D   Hm   A      Hm  
E--7--10--7-xx-5-5-x--7-xxx-|
H--7--10--7-xx-5-5-x--7-xxx-|
G--7--11--7-xx-6-6-x--7-xxx-|
D--9--12--9-xx-7-7-x--9-xxx-|
A--9--12--9-xx-7-7-x--9-xxx-|
E--7--10--7-xx-5-5-x--7-xxx-|

D
Uzela je svoje stvari, strpala u kofer,
                                       Hm D Hm A Hm(Figura 1)
Tamo dole na stanici cekao je sofer... 
D
Imala je s' matorcima uvek samo svadje, 
                                           Figura 1
Uzela im nesto para, tek da joj se nadje...

Ref:
G                   Fis 
Od straha drhti k'o prut,
G                 Fis
Sendvic da zavara glad,
G               A  
tri cigarete uz put
  Hm
U GRAD!!!

Steze oznojen dlan,
Morala je kad-tad,
Ona ostvaruje san
U GRAD!!!

Po korzou iste face besmisleno kruze,
Subotom i nedeljom je ostajala duze.
Kuci su je, kad zakasni, tukli kao stoku,
Bila im je crna ovca, svima trn u oku.

Volela je svoje tajne za sebe da cuva,
Ni Bog sveti nije znao sta se u njoj kuva.
Nece, nije htela nista nikome da kaze,
Milicija i rodjaci, svi ce da je traze...


Figura 2: Pratnja (Jedan isti rif)
   D
E--------------------------------------------------|
H--------------------------------------------------|
G--------------------------------------------------|
D--------------------------------------------------|
A--10^12-12-12-10^12-12-12-10^12-12-12-10^12-12-12-|
E--10----10-10-10----10-10-10----10-10-10----10-10-|


Figura 3: Refren
   G                Fis              G                Fis
E---------------------------------------------------------------------|
H---------------------------------------------------------------------|
G----4--7---4--7------3--6---3--6------4--7---4--7------3--6---3--6---|
D--5------5------5--4------4------4--5------5------5--4------4------4-|
A---------------------------------------------------------------------|
E---------------------------------------------------------------------|

   G                A                  Hm
E--------------------------------------------------------------------------|
H--------------------------------------------------------------------------|
G----4--7---4--7------6--9----6--9-----4-------4------4--4-------4------4--|
D--5------5------5--7-------7-------7--------------------------------------|
A----------------------------------------(2)(2)--(2)(2)----(2)(2)--(2)(2)--|
E--------------------------------------------------------------------------|

(Objasnjenje: nota u zagradi (tzv. ghost note) znaci da se zica na tom
pragu ne pritisne do kraja, nego se samo ovlas dodirne.) 


***VERZIJA 2***
Transkripcija:Sale (goma@pop.transit.ru)
Home         :http://yurope.com/people/sen/The.Book.Of.Home/akordi


D
uzela je svoje stvari strpala u kofer
                               Hm D Hm A Hm (2X)
tamo dole na stanici cekao je sofer
D
imala je s matorcima uvek samo svadje
                               Hm D Hm A Hm (2x)
ukrala je nesto para tek da joj se nadje

G                  F#   G                 F#
Od straha drhti ko prut sendvic da zavara glad
G            A         H
tri cigarete usput - u grad

steze oznojen dlan morala je kad-tad
ona ostvaruje san - u grad

po korzou iste face besmisleno kruze
subotom i nedeljom je ostala duze
kuci su je kad zakasni tukli kao stoku
bila im je crna ovca svima trn u oku

G                  F#   G                 F#
od straha drhti ko prut sendvic da zavara glad
G            A         H
tri cigarete usput - u grad
steze oznojen dlan morala je kad-tad
ona ostvaruje san - u grad

volela je svoje tajne za sebe da cuva
ni bog sveti nije znao sta se u njoj kuva
nije htela nista nikome da keze
milicija i rodjaci svi ce da je traze

od straha drhti ko prut sendvic da zavara glad
tri cigarete usput - u grad
steze oznojen dlan morala je kad-tad
ona ostvaruje san - u grad