Riblja Corba - On I Njegov Bmw

Transkripcija: Toma 3:16 (toma3-16@wanadoo.fr & toma3_16@msn.com)


INTRO:
-------------------------------------
-------------------------------------
-------------------------------------
-------------------------------------
-------1--------1--------1--------1--
-0-1-3----0-1-3----0-1-3----0-1-3----

PRVA STROFA:
 E                                   A                 E
-------------------------------------------------------------------------
-------------------------------------------------------------------------
-----------------------------------------------------------------------x2
-------------------------------------------------------------------------
-------1--------1--------1--------1----2-3-6----2-3-6--------1--------1--
-0-1-3----0-1-3----0-1-3----0-1-3----4--------4--------0-1-3----0-1-3----

E
Brzi, lepi, elegantni,
                           A    E
neodoljivi, sarmantni... Aha, aha
E
Pobeda im svaka znaci,
                         A    E
dezurni su osvajaci... Aha, aha

RIFF  G
      Pevacice, belerine, mnoge druge cure fine,
      pa glumice, manekenke, to su za njih samo zenke.
                  D
      Oh, i ratni plen.

RIFF  G
      Napadaju, koce, trube, gume skripe, usne ljube,
      maloletnu, punoletnu, svaku curu koju sretnu.
                  D
      Oh, poljube bar.

RIFF  A                   D
      On je prazan, on je glup,
      A             D
      al' auto vozi skup,
           E
      stereo i er kondisn mogu sve,
                  A   E
      on i njegov BMW.
      A                   D
      On je prazan, on je glup,
      A             D
      al' auto vozi skup,
           E
      stereo i er kondisn mogu sve,
                  A
      on i njegov BMW.

SOLO + RIFF  A  D  A  D  E    A

------------------
------------------
------------------
------------------
--2-3-6----2-3-6--
4--------4--------

VTORA STROFA:
 E                                   A                 E
-------------------------------------------------------------------------
-------------------------------------------------------------------------
-----------------------------------------------------------------------x2
-------------------------------------------------------------------------
-------1--------1--------1--------1----2-3-6----2-3-6--------1--------1--
-0-1-3----0-1-3----0-1-3----0-1-3----4--------4--------0-1-3----0-1-3----

E
Nema nigde zive duse,
                          A    E
sedista se lako ruse... Aha, aha
E
Kad s kolima stekne dragu,
                            A    E
onda ima konjsku snagu... Aha, aha

RIFF  G
      Pevacice, belerine, mnoge druge cure fine,
      pa glumice, manekenke, to su za njih samo zenke.
                  D
      Oh, i ratni plen.

RIFF  G
      Napadaju, koce, trube, gume skripe, usne ljube,
      maloletnu, punoletnu, svaku curu koju sretnu.
                  D
      Oh, poljube bar.

RIFF  A                   D
      On je prazan, on je glup,
      A             D
      al' auto vozi skup,
           E
      stereo i er kondisn mogu sve,
                  A   E
      on i njegov BMW.
      A                   D
      On je prazan, on je glup,
      A             D
      al' auto vozi skup,
           E
      stereo i er kondisn mogu sve,
                  A
      on i njegov BMW.

-----------------------------------------
-----------------------------------------
-----------------------------------------
-----------------------------------------
--2-3-6----2-3-6----2^3^6^--2^3^6^-------
4--------4--------4^------4^------4^3^4--