Riblja Corba - Ovde

Album        : Ovde (2003)
Transkripcija: Preponas (l_cane@eunet.yu)


Uvodni solo:
         D               B  3x         D          B            D 
                              |
E|----5--2----2----------1----|----------------------------------------|
H|--------------5--3--5-------|--5--3----------------------------------|
G|-2--------------------------|--------2-------------------------------|
D|----------------------------|------------4------3--2-3-2-------------|
A|----------------------------|---------------5-------------5--5-------|
E|----------------------------|----------------------------------------|
Ovaj uvod je inace prilicno visoko odsviran negde od 14. praga, 
ali ko ima akusticnu gitaru zadovoljice se i sa ovim.

D                 B
Sve je to kosava oduvala,
D                            B
a bilo je dobrih i postenih ideja,
C                     B
ovde bi se i Penelopa prokurvala
C                 B
i ne bi cekala Odiseja.

D                     B 
Ovde su najvredniji posustali, 
D                          B
preti opasnost od masovnog pomora, 
C                    B
ovde su najuporniji odustali, 
C               B        (D nekoliko puta)
ovo su Sodoma i Gomora. 

Refren:
Gm               Gm F Dis
K'o limun te cede        
Dis          Dis D Cm
celoga zivota,
Cm                            D
mucnog postojanja znana ti je svrha,
Gm                Gm F Dis
pred tobom je brdo, 
Dis            Dis D Cm
zove se Golgota,
Cm                            D
noseci svoj krst penjes se do vrha.

Solo:

Ovde se sreca na kapi dozira 
i crni gavran je osedeo, 
odavde je glavom bez obzira 
pobegao svako ko je vredeo. 

Ovde ti nude krv, znoj i suze,
pogledaj sebicne budale,
ovo je brod ludaka, ovo je splav Meduze
i prepune su Augijeve stale.

Refren:

***VERZIJA 2***
Transkripcija: Vai
 
Intro :                                            3x|
E||--------17----|--------------------------|--------|--------------------|
B||--------------|--17b---17r---15----17----|--18~---|-/18----17----------|
G||--14----------|--------------------------|--------|--------------14----|
D||--------------|--------------------------|--------|--------------------|
A||--------------|--------------------------|--------|--------------------|
E||--------------|--------------------------|--------|--------------------|
                                               
--------------------|------------------------||
--------------------|------------------------||
--------------------|------------------------||
-/15----------15----|--14h15p14--------------||
--------17----------|--------------17---17~--||
--------------------|------------------------||


D                A#
Sve je to kosava oduvala, 
D                           A#
a bilo je dobrih i postenih ideja, 
C                   A#
ovde bi se Penelopa prokurvala, 
C               A#
ne bi cekala Odiseja. 

Ovde su najvredniji posustali, 
preti opasnost od masovnog pomora, 
ovde su najuporniji odustali, 
ovo su Sodoma i Gomora. 

Gm               Gm/F (prelaz) 
Ko limun te cede
Eb            Eb/D
celoga zivota
C
Mucnog postojanja
            D
znana ti je svrha

Gm                 Gm/F
Pred tobom je brdo
Eb              Eb/D 
zove se Golgota
C
noseci svoj krst 
             D  ( ide neko razlaganje D ) 
penjes se do vrha

Ovde se sreca na kapi dozira 
i crni gavran je osedeo, 
odavde je glavom bez obzira 
pobegao svako ko je vredeo. 

Ko limun te cede celog zivota, 
bucnog postojanja znana ti je svrha, 
pred tobom je brdo,zove se Golgota, 
noseci svoj krst penjes se do vrha. 

Predlazem da akorde svirate ovako :

D = *57775
A# = 688766
C = *35553 ( moze i ovako c = 8 10 10 9 8 8 ) 
Gm = 355333
F = 133211
Eb(D#) = *68886