Riblja Corba - Poslednja Pesma O Tebi

Transkripcija: Preponas (l_cane@eunet.yu)
Album        : "Ovde" (2003)


Uvodni solo:
             G   C          G     C           G    C             G    C
E|--3--2--0--------3--2--0--2----------------------------------------|
H|-----------3-----------------3-----0--------0--0------0------------|
G|--------------------------------------2--0---------------2--0--0---|
D|-------------------------------------------------------------------|
A|-------------------------------------------------------------------|
E|-------------------------------------------------------------------|

C           G      C           G     C
Krajem sedamdesetih dvadesetog veka
          G   C           G      C
bilo je u meni nesto od coveka.
             G     C            G     C
Ja sam davno mrtav, jos od onog dana,
            G   C       G        G7
nas troje u sobi i moja sahrana.

Refren:
  C
I uvek svecano obecam,
a znam da lazem u sebi,
      F              Dm
da cu prestati da se secam,
       F         G       C
ovo je poslednja pesma o tebi.

Solo:

Ujed za dusu, u grlu knedla,
jednom zauvek zbacen sa sedla.
Izgleda da sam uzalud stario,
nista od snova nisam ostvario.

Refren:

Zivim zbog drugih, meni je svejedno,
posle tebe potop, nista nije vredno.
Podmuklo zaboli kao kvarni zubi,
istina je da se samo jednom ljubi.

Refren:

Solo:

***VERZIJA 2***
Transkripcija: Vai

SOLO:
E||------------------------------|-----------------------------------|
B||------------------------------|-----------------------------------|
G||------------------------------|-----------------------------------|
D||--13b-------13b-13b-13b-------|----------13-13b---13--14--13--14b-|
A||------------------------------|--12--15---------------------------|
E||------------------------------|-----------------------------------|

----------------------------|--------------|--------------------|
----------------------------|--------------|--------------------|
----------10~---12r---10----|--12----------|--------------------|
----------------------------|--------12b---|--12r---10----12r---|
--11h-12--------------------|--------------|--------------------|
----------------------------|--------------|--------------------|

---------------12----------------------|-----------12------------------------|
---------13-15----15-13-15-13-15-15r---|-----13-15----15-13-15-13-15-15r-13--|
------14-------------------------------|--14---------------------------------|
---------------------------------------|-------------------------------------|
---------------------------------------|-------------------------------------|
---------------------------------------|-------------------------------------|

--------------12----15r---|--13----15b---------|--------------------||
--------------------------|--------------15~---|--15r---13----15~---||
--13h---14----------------|--------------------|--------------------||
--------------------------|--------------------|--------------------||
--------------------------|--------------------|--------------------||
--------------------------|--------------------|--------------------||

***VERZIJA 2***
Transkripcija: Bojan Basic (bbasic@ptt.yu)

Intro:
H-8-7-5----8-7-5-5/7-----------------------------
G-------7------------9/7--4-----5/7-5/7--7-5-4-4-
D---------------------------7-5-7/9-7/9--9-7-5-5-

C           G
Krajem sedamdesetih
C          G
dvadesetog veka
C         G
bilo je u meni
C        G
nesto od coveka

Ja sam davno mrtav
jos od onog dana
nas troje u sobi
i moja sahrana    G7

C      G        C
I uvek svecano obecam
C         G       C
a znam da lazem u sebi
      F        Am    Dm7
da cu prestati da se secam
       F         G       C
ovo je poslednja pesma o tebi

Ujed za dusu
u grlu knedla
jednom zauvek
bacen sa sedla

Izgleda da sam
uzalud stario
nista od snova
nisam ostvario

I uvek svecano obecam
a znam da lazem u sebi
da cu prestati da se secam
ovo je poslednja pesma o tebi

Zivim zbog drugih
meni je svejedno
posle tebe potop
nista nije vredno

Podmuklo zaboli
kao kvarni zubi
istina je da se
samo jednom ljubi

I uvek svecano obecam
a znam da lazem u sebi
da cu prestati da se secam
ovo je poslednja pesma o tebi.