Riblja Corba - Pozajmila Je Pare,poludela Skroz...

Transkripcija: Aca Urosevic - Aca_Urosevic@yahoo.com
Napomena     : Prosli put sam poslao nesto cega je vec bilo u arhivi.
Ovaj put saljem nesto sto dosad niko nije skin'o ovako detaljno...


Uvod:
Figura 1:                   Figura2:
   F        A    F         A                  A         
E------5-6--5--------5-6-|-------------------------------------|
H----6-6-6--5------6-6-6-|-------------------------------------|
G----5------6------5-----|-------------------------------------|
D--7--------7----7-------|-------------------------------------|
A--8-------------8-------|----7---9---10-9-5s---7---9---10-9-5s|
E------------------------|--x-5-x-5-x-5--5-3s-x-5-x-5-x-5--5-3s|

Figura 3:  
   A                
E------------------------------------|
H------------------------------------|
G------------------------------------|
D------------------------------------|
A----7---9---10---9---7---9---10---9-|
E--x-5-x-5-x-5--x-5-x-5-x-5-x-5--x-5-|

Figura 4-pratnja:
  A                   G C G
E--------------------------|
H--------------------------|
G--------------------------|}2x
D----------------------5---|
A----7---9---10---9--5-3-5-|
E--x-5-x-5-x-5--x-5--3---3-|

Figura 5-pratnja
  H               G                 H               G  D 
E---------------------------------|------------------------|
H---------------------------------|------------------------|
G---------------------------------|------------------------|
D---------------------------------|------------------------|
A---9---9---9---9---5---5---5---5-|---9---9---9---9-5--12--|
E-x-7-x-7-x-7-x-7-x-3-x-3-x-3-x-3-|-x-7-x-7-x-7-x-7-3--10--|
 
Pa onda opet figura 3...

Refren:
Figura 1 (jako)
   F        A   F        A 
E----------------------------|
H----------------------------|
G----------------------------|
D--3-3-3-3--7---3-3-3-3--7---|
A--3-3-3-3--7---3-3-3-3--7---|
E--1-1-1-1--5---1-1-1-1--5---|

Figura 2(polako, nezno, pa onda opet jako):
   Cism A    Cism Fis   H
E--4----5----4-------------|
H--5----5----5-------------|
G--6----6----6-------------|
D--6----7----6----------4--|
A--4----7----4----4-4-x-2--|
E-------5---------2-2-x----|

Toliko o pratnji.Evo i teksta:

A                    G   C     G 
Pozajmila je pare, poludela je skroz
A                 G    c    G  
Kupila je kartu i sela je u voz
H                                             G
Posla je da vidi gde sam ili mozda s' kim sam sad,
H                                        G   D 
posla je u nepoznato, za nju sasvim novi graaaad!
   A        
PA DA! Hm, PA DA!

Ljubazan sam bio, nisam im'o kud,
Ne bi bilo lepo da se pravim lud!
Zar da kazem da je ona samo jedna avantura,
Zar da priznam da je pored mene neka druga curaaaa?
TO NE! Hm, TO NE!

Ref:
F                          A
Savest me je grizla, nisam fer,
F                     A 
Ponasam se kao divlja zver!
  Cism       A 
A ona veruje sve,
   Cism      Fis H         A F A F A (prelaz isti kao uvod)
Za nju je... KAO PRE, HEJ!

A sad solo(nisam siguran da je 100% korektan. Shvatite ga kao
moju improvizaciju):
   D
E------------------------------|
H--8^10-8-6s7----8^10-8-6s7----|
G-------------7--------------7-|
D------------------------------|
A------------------------------|
E------------------------------|
   D
E--8^10-10^8-------------------------8-----10--|
H------------10-8---------------8-10---8-------|
G-----------------10-7----7-10-----------------|
D----------------------10----------------------|
A----------------------------------------------|
E----------------------------------------------|

(onda opet prelaz u A na klaviru.Ja ga sviram ovako,mrzelo me je da 
ga jos iskomplikujem...:)
   A 
E------------------------------------------------|
H------------------------------------------------|
G------------------5----------5---7---5----------|
D--5^7-7-7-7-7-7-7---7-7--5^7--7----7---7--5^7-7-|
A------------------------------------------------|
E------------------------------------------------|

E----------------------------------|
H----------------------------------|
G----------------------------------|
D--5---7---5----------5---7---5----|
A---7----7---7--5^7-7--7----7---7--|
E----------------------------------|

Pa opet iz D, na gitari
   D
E----------8------------8-|
H--6-7-10-------6-7-10----|
G-------------------------|
D-------------------------|
A-------------------------|
E-------------------------|

E-------8-10------------------------10-s15~~-|
H--8^10------8^10^8--------------10----------|
G--------------------10-7--10^11-------------|
D--------------------------------------------|
A--------------------------------------------|
E--------------------------------------------|

Onda opet u A, pa strofa, refren i kraj.

Objasnjenje: ^-hammer on ili pull off
             s-slide
             ~-vibrato
             x-prigusena zica


***VERZIJA 2***
Poslao       : Marko (lade@bendroz.ca)


A                 G       C    G  
Pozajmila je pare, poludela je skroz,
A                 G     C   G
kupila je kartu i sela je u voz.
Hm                                        G
Posla je da vidi gde sam, ili mozda s kim sam sad,
Hm                                       G   D A
posla je u nepoznato, za nju sasvim novi grad.

Ljubazan sam bio, nisam im'o kud,
ne bi bilo lepo da se pravim lud.
Zar da kazem da je ovo samo jedna avantura?

F                    A
Savest me je grizla, nisam fer,
F              A
ponasam se kao divlja zver,
Cism         A    Cism      Fis H  A
a ona veruje sve, za nju je kao pre.