Riblja Corba - Proslosti

Transkripcija: Toma 3:16 (toma3-16@wanadoo.fr & toma3_16@msn.com)


INTRO i
PRVA STROFA: ------------------------------------------
             -----3---------1---------3---------3------
             ---2---2-----0---0-----3---3-----3---3----(vise puta)
             -0-------0--------------------------------
             -----------3-------3-1-------1------------
             -------------------------------3-------3--
              Dm        C         A#        Gm

      Dm         C            A#    Gm
      Slusaj me, sit sam svih uvreda
      Dm     C       A#  Gm
      Cuti i samo se smej
      Dm       C       A#   Gm
      Pas koji laje ne ujeda
      Gm          Dm
      Cuti i bice ok
      Gm          F
      Cuti i bice ok

RIFF  D        C      A#   G
      Ko me je icim zaduzio
        D        C        A#  G
      A pamcenje imam k'o slon
      D      C        A#    G
      Dobice sta je zasluzio
        G                  D
      I kad tad nastradace on
        G                  D
      I kad tad nastradace on

RIFF  G#        F
      Nisi bila bogzna sta
      D#              A#
      Nisam bio to ni ja
      G#          F
      Sta je bilo sa zivotom
      D#                     A#
      Pricacemo jednom o tom-potom

      Dm    Gm
      Proslosti,
      C          Dm
      Molim te, oprosti

     ---------------------------------
     ----10~---10^9^8~---5^6^5--------
     --7-----------------------5~-7~--
     ---------------------------------
     ---------------------------------
     ---------------------------------

      Dm    Gm
      Proslosti,
      C          Dm
      Molim te, oprosti

RIFF  D          C            A#    G
      Slusaj me, sit sam svih uvreda
      D      C       A#  G
      Cuti i samo se smej
      D        C       A#   G
      Pas koji laje ne ujeda
      Gm          D
      Cuti i bice ok
      Gm          D
      Cuti i bice ok

RIFF  D        C      A#   G
      Ko me je icim zaduzio
        D        C        A#  G
      A pamcenje imam k'o slon
      D      C        A#    G
      Dobice sta je zasluzio
        G                  D
      I kad tad nastradace on
        G                  D
      I kad tad nastradace on

RIFF  G#        F
      Nisi bila bogzna sta
      D#              A#
      Nisam bio to ni ja
      G#          F
      Sta je bilo sa zivotom
      D#                     A#
      Pricacemo jednom o tom-potom

      Dm    Gm
      Proslosti,
      C          Dm
      Molim te, oprosti

     ---------------------------------
     ----10~---10^9^8~---5^6^5--------
     --7-----------------------5~-7~--
     ---------------------------------
     ---------------------------------
     ---------------------------------

      Dm    Gm
      Proslosti,
      C          Dm
      Molim te, oprosti

SOLO + RIFF  D   G   D   G   D   G   A#   G   A#   G

RIFF  G#        F
      Nisi bila bogzna sta
      D#              A#
      Nisam bio to ni ja
      G#          F
      Sta je bilo sa zivotom
      D#                     A#
      Pricacemo jednom o tom-potom

      Dm    Gm
      Proslosti,
      C          Dm
      Molim te, oprosti

     ---------------------------------
     ----10~---10^9^8~---5^6^5--------
     --7-----------------------5~-7~--
     ---------------------------------
     ---------------------------------
     ---------------------------------

      Dm    Gm
      Proslosti,
      C          Dm
      Molim te, oprosti

     ---------------------------------
     ----10~---10^9^8~---5^6^5--------
     --7-----------------------5~-7~--
     ---------------------------------
     ---------------------------------
     ---------------------------------

     Dm    Gm
     Proslosti,
     C          Dm
     Molim te, oprosti
     Dm    Gm
     Proslosti,
     C          Dm
     Molim te, oprosti
     Dm    Gm
     Proslosti,
     C          Dm
     Molim te, oprosti
     Dm    Gm
     Proslosti,
     C          Dm
     Molim te, oprosti ....