Riblja Corba - Rekla Je

Transkripcija:Mr.Z  mr.z@mindless.com
Home         :http://2akordi.net/


  Bm         Bo 
U polumraku poznate sobe
                       Bm
ja sam pricao uporno, dugo, 
                  Bo
da sve je gotovo, da nema vise 
               F#      Bm    G Bm G
i da mi nismo jedno za drugo.
 
Prvi put iskreno, bez trunke lazi,
ja poluglasno, sto mogu tise 
istinu rekoh da je ne volim,
da kraj nje nisam srecan vise.
 
Bm         A
Rekla je - Sve je u redu, 
F#                     G    A
rekla je - Zagrli me jace, 
Bm         A
rekla je - Nije mi nista 
F#                      G    A
i tek je onda pocela da place.
 
Rekla je - Nemoj da brines
rekla je da nije vazno,
rekla je - Brzo ce proci 
samo me zagrli snazno.
 
 A ja sam cuteci grizao usne 
dok bivsi snovi po sobi lete 
i nisam znao sta da joj kazem,
sav bespomocan, ko malo dete.
         
***VERZIJA 2***
Transkripcija: Dr kac  (maric04@yahoo.com)
 
       
Ovo je jedna od mojih sema za uvod...
 
             Ddim        C#dim         
|-2----2---2--------------------------2-------------------|
|-3-----------6----6---6--5----5---5--3----3--------------|
|-4--4---4----4--4---4----3--3---3----4--4---4--7--6--4---|
|-4-----------6-----------5-----------4---------7--6--4---|
|-2-----------5-----------4-----------2---------5--4--2---|
|---------------------------------------------------------|
  
|---2---2--------------------------1---------------------|
|----------6----6---6--5----5---5--1---------------------|
|-4---4----4--4---4----3--3---3----3--7--6--4-----4------|
|----------6-----------5-----------4--7--6--4--5--4--5---|
|----------5-----------4-----------4--5--4--2--5--2--5---|
|----------------------------------2-----------3-----3---|
  
|------------|
|------------|
|-------4----|
|-5--0--4----|
|-5--0--2----|
|-3----------|