Riblja Corba - Rokenrol Za Kucni Savet

Transkripcija: Toma 3:16 (toma3-16@wanadoo.fr)


INTRO BASS:
------------------------------------------------------------
----7-7-----5------3-3------------5-5------------7-7-----5-- x2
--------7-7------------3-3-6----------5-5-8----------7-7----
5-5------------1-1------------3-3------------5-5------------

GUITAR RIFF:
-------------------
-------------------
-------------------     x2
-------------------
-7-7-10-7-2-----7--
------------5-3----

RIFF  E
       Kada slusam dobre stvari
       G
       Meni se u ritmu skace
          F              E
       Za komsije ko jos mari
          F            E
       Ja radio pustam jace.

GUITAR RIFF:
-------------------
-------------------
-------------------     x2
-------------------
-7-7-10-7-2-----7--
------------5-3----


RIFF  E
       Kucni savet me proganja
       G
       Svi me mrze iz dna duse
             F           E
       Kazu, dosta im je dranja
         F            E
       I zidovi da se ruse.

RIFF        A
       Jer, komsije ce da me biju
       F
       Zbog preglasnog rokenrola
       G                   G G
       Pominju mi familiju
                 A        A G F
       Teraju me dodavola.
       A
       Komsije ce da me biju
       F
       Zbog preglasnog rokenrola
       G                   G G
       Pominju mi familiju
                 A        A G F  E  A G F
       Teraju me dodavola.

SOLO + RIFF   A  F  G  A  (x2)

GUITAR RIFF:
-------------------
-------------------
-------------------     x2
-------------------
-7-7-10-7-2-----7--
------------5-3----

RIFF  E
       A ja pustam sve jos jace
         G
       I naravno, i oni cuju
           F          E
       Pa odvrcu osigurace
         F           E
       Iskljucuju mi struju.

GUITAR RIFF:
-------------------
-------------------
-------------------     x2
-------------------
-7-7-10-7-2-----7--
------------5-3----

RIFF  E
       Al' imaju jos problema
       G
       Kako sa mnom da se bore
              F         E
       Protiv mene leka nema
          F    E
       Ja imam tranzistore.

RIFF         A
       Znam, komsije ce da me biju
       F
       Zbog preglasnog rokenrola
       G                   G G
       Pominju mi familiju
                 A        A G F
       Teraju me dodavola.
        A
       Komsije ce da me biju
       F
       Zbog preglasnog rokenrola
       G                   G G
       Pominju mi familiju
                 A        A G F  E  A G F
       Teraju me dodavola.

GUITAR RIFF:
-------------------
-------------------
-------------------
-------------------
-7-7-10-7-2-----7--
------------5-3----


***VERZIJA 2***
Transkripcija: Milan Milatovic
Poslao       : Luka Manojlovic (Luka.Manojlovic@guest.arnes.si)
Home         : The Book of Rock and Roll: Riblja Corba


Fis
Kada slusam dobre stvari,
A
Meni se u ritmu skace,
G                  Fis
Za komisije ko jos mari,
G               Fis
Ja radio pustam jace

Kucni savet me proganja,
Svi me mrze iz dna duse,
Kazu dosta im je dranja,
I zidovi da se ruse.

Refren:

H
Komsije ce da me biju,
G
Zbog preglasnog rokenrola,
A
Pominju mi familiju,
          H
Teraju me dodjavola.

A ja pustam sve jos jace,
Naravno, i oni cuju,
I odvrcu mi osigurace
I iskljucuju mi struju.

Al' imaju jos problema,
Kako samnom da se bore?
Protiv mene leka nema
Ja imam tranzistore.

***VERZIJA 3***
Transkripcija: Slash - mvindis@hinet.hr.zg

Uvodni riff:
|-----------------------|
|-----------------------|
|-----------------------|
|-0-3-5---------5-------|
|-------5-3-------------|
|-----------6-3---------|

______
Akordi

Verse:
G Bb G# G G# G
Refren:
C G# Bb C Bb G# G

***VERZIJA 4***
Transkripcija: MetalemijA@yahoo.com


uvod:
    I dio je muted
e|----------------------------------
b|----------------------------------
g|----------------------------------3x
d|------7-7-------------5-5---------
a|-------------7----------------5---
e|--5-5----5-5------3-3-----3-3-----

    II dio
e|----------------------------------
b|----------------------------------
g|--5--7--5-------------------------
d|-----------7--5-----7-------------
a|-----------------7----------------
e|----------------------------------

     F#
Kada slusam dobre stvari
A
Meni se u ritmu skace
   G              F#
Za komsije ko jos mari
   G            F#
Ja radio pustam jace.

Kucni savet me proganja
Svi me mrze iz dna duse
Kazu, dosta im je dranja
I zidovi da se ruse.

      Bm
Znam, komsije ce da me biju
G
Zbog preglasnog rokenrola
A
Pominju mi familiju
          Bm
Teraju me dodavola.

A ja pustam sve jos jace
I naravno, i oni cuju
Pa odvrcu osigurace
Iskljucuju mi struju.

Al' imaju jos problema
Kako sa mnom da se bore
Protiv mene leka nema
Ja imam tranzistore.

Znam, komsije ce da me biju
Zbog preglasnog rokenrola
Pominju mi familiju
Teraju me dodavola.


***VERZIJA 5***
Transkripcija: majstorsilvi (Ivory) - majstorsilvi@net.hr


Uvod: bass dionica te Riff
                           F#m
E------------------------------------------------------------
H------------------------------------------------------------
G------------------------------------------------------------
D------2dn----------------------------------2dn--------------
A--2--4------4--2-------4--------------2--4-----4--2-------4-
E-----------------4--2--------------------------------4--2---

F#m
Kada slusam dobre stvari,
A
Meni se u ritmu skace,
Gm                 F#m
Za komisije ko jos mari,
Gm
Ja radio pustam

jace
                           F#m
E------------------------------------------------------------
H------------------------------------------------------------
G------------------------------------------------------------
D------2dn----------------------------------2dn--------------
A--2--4------4--2-------4--------------2--4-----4--2-------4-
E-----------------4--2--------------------------------4--2---

F#m
Kucni savet me proganja,
A
Svi me mrze iz dna duse,
Gm                 F#m
Kazu dosta im je dranja,
Gm                  F#m
I zidovi da se ruse.

Refren:

H
Komsije ce da me biju,
Zbog preglasnog rokenrola,
Gm                A
Pominju mi familiju,
                H       A Gm F#m
Teraju me dodjavola.

H
Komsije ce da me biju,
Zbog preglasnog rokenrola,
Gm                A
Pominju mi familiju,
                 H       A Gm F#m
Teraju me dodjavola.

H     A Gm F#m


SOLO:
E----------------7-------------------------------------------
H----------------------------------7--10--7--10up------------
G-----9up--9-7-------7-9-7-----9up---------------------------
D--------------9---9-----------------------------------------
A------------------------------------------------------------
E------------------------------------------------------------

E-----7---------------------------7------------------7-------------
H-------10-----------------------------------------------7-10-10up-
G----------9up--7-9---7-9-9up-7-----7-----9up-9--7-----7-----------
D-------------------9-----------9------------------9---------------
A------------------------------------------------------------------
E------------------------------------------------------------------

E-------------------------7-------------------------
H---10-7-10up--------7-10---7-10-7-----7------------
G----------------------------------9up---9up-7-9up--
D---------------------------------------------------
A---------------------------------------------------
E---------------------------------------------------


E---12up-12-10-12----------10--------------------------------
H-----------------12-10-12----12up---------------------------
G------------------------------------OVDJE UPADA RIFF--------
D------------------------------------KOJI JE ISPOD-----------
A------------------------------------------------------------
E------------------------------------------------------------

                           F#m
E------------------------------------------------------------
H------------------------------------------------------------
G------------------------------------------------------------
D------2dn----------------------------------2dn--------------
A--2--4------4--2-------4--------------2--4-----4--2-------4-
E-----------------4--2--------------------------------4--2---


F#m
A ja pustam sve jos jace,
A
Naravno, i oni cuju,
Gm                 F#m
I odvrcu mi osigurace
Gm
I iskljucuju mi
      F#m
   struju.
                                   F#m
E------------------------------------------------------------
H------------------------------------------------------------
G------------------------------------------------------------
D------2dn----------------------------------2dn--------------
A--2--4------4--2-------4--------------2--4-----4--2-------4-
E-----------------4--2--------------------------------4--2---

F#m
Al' imaju jos problema,
A
Kako samnom da se bore?
Gm               F#m
Protiv mene leka nema
Gm                F#m
Ja imam tranzistore.


H
Znam komsije ce da me biju,
Zbog preglasnog rokenrola,
Gm                A
Pominju mi familiju,
                H       A Gm F#m
Teraju me dodjavola.


H
Komsije ce da me biju,
Zbog preglasnog rokenrola,
Gm                A
Pominju mi familiju,
              H       A Gm F#m
Teraju me dodjavola.

 H       A Gm F#m
E-------------------------------
H-------------------------------
G-------------------------------
D------2dn----------------------
A--2--4------4--2-------4-------
E-----------------4--2----------

-----------------------------------------------------------
H        A        Gm       F#m
E--x--   E--x--   E--x--   E--x--
H--x--   H--x--   H--x--   H--x--
G--4--   G--x--   G--x--   G--x--
D--4--   D--7--   D--5--   D--4--
A--2--   A--7--   A--5--   A--4--
E--x--   E--5--   E--3--   E--2--