Riblja Corba - Sponzori

Transkripcija: Toma 3:16 (toma3_16@msn.com)



 Am                                               E
--------------------------------------------------------------------
------------13~------------------------------13~--17--17-17-17--17--
-14--12-14-------14--12-14-12-9~--14--12-14-------------------------
--------------------------------------------------------------------
--------------------------------------------------------------------
--------------------------------------------------------------------

Am
Plejboj otvorim na pola
a u njemu riba gola,
pa se pitam, bre,ko metne
E
u te ribe kvalitetne.

Am
Kada dobru uocim
i ja bi da umocim
trebalo bi neko da upozori
E
danas kresu samo sponzori.

                    A
  Danas kresu sponzori,
E                   A
  danas kresu sponzori,
F#m            G
  sirotinja uboga
E               A
  opet osta suvoga.
  
  
 Am                                               E
--------------------------------------------------------------------
------------13~------------------------------13~--17--17-17-17--17--
-14--12-14-------14--12-14-12-9~--14--12-14-------------------------
--------------------------------------------------------------------
--------------------------------------------------------------------
--------------------------------------------------------------------

Am
Kad pitaju prosecni
odgovori odrecni
prosecni se zlopate
E
drndajuci lopate.

Am
Lep si kao sam Apolon,
mudar kao car Solomon,
ako nisi ti solventan
E
kao da si impotentan.

                    A
  Danas kresu sponzori,
E                   A
  danas kresu sponzori,
F#m            G
  sirotinja uboga
E               A
  opet osta suvoga.

--------------------------------------------------------------------
------------13~------------------------------13~--17--17-17-17--17--
-14--12-14-------14--12-14-12-9~--14--12-14-------------------------
--------------------------------------------------------------------
--------------------------------------------------------------------
--------------------------------------------------------------------
 Am                                               E

Am
Ni ti, ni ja necemo
moci da ga mecemo
tragicni su ishodi
E
kad su slabi prihodi.

Am
Danas kresu tajkuni
njima rade majmuni,
danas kresu Sorosi
E
i ostali olosi.

                    A
  Danas kresu sponzori,
E                   A
  danas kresu sponzori,
F#m            G
  sirotinja uboga
E               A
  opet osta suvoga.
E                   A
  Danas kresu sponzori,
E                   A
  danas kresu sponzori,
F#m            G
  sirotinja uboga
E               A
  opet osta suvoga.

               F#m
Sirotinja uvek suva,
               A
ona moze da ga duva.

                    A
  Danas kresu sponzori,
E                   A
  danas kresu sponzori,
F#m            G
  sirotinja uboga
E               A
  opet osta suvoga.
E                   A
  Danas kresu sponzori,
E                   A
  danas kresu sponzori,
F#m            G
  sirotinja uboga
E               A
  opet osta suvoga.


***VERZIJA 2***
Transkripcija: Toma 3:16 (toma3_16@msn.com)

BASS transkripcija

intro :
------------------------------------------------------
------------------------------------------------------
----3--5--5-7-----3--5--7------3--5--5-7--7-7--7-7-7--
-5-------------5----------8-5-------------------------

strofi :
-------------------------------
-------------------------------
----3--5--5-7-----3--5--7------
-5-------------5----------8-5--

kraj strofi :
--------------------
--------------------
-7-7-7-7-7-7-7-7-7--
--------------------

refren :
----------------------------------------------
-7----5-7----5---------------7----5-7---------
----7------7---7----5-7----5----7------7-6-5--
------------------7------7--------------------

--------------------------------------------------------
-----------5----3-5----3---------------7----5-7----5----
--3-5----3----5------5---7----5-7----5----7------7---7--
5------5--------------------7------7--------------------