Riblja Corba - Srbin Je Lud

Transkripcija: Toma 3:16 (toma3-16@wanadoo.fr)
Info         : svirati PETICE 


RIFF
A                         F         G         A                      
-------------------------------------------------------------------------
--------------------------------------------------17--15-17-15-13~-12-13-
21--19-21-19-17~-16-17-16-14~-13-14-16~-14-16-17~------------------------
-------------------------------------------------------------------------
-------------------------------------------------------------------------
-------------------------------------------------------------------------

   F        G           A
----------------------------
12-10~-9-10-12~---13-12-10~-
----------------9-----------   
----------------------------
----------------------------
----------------------------


RIFF   C G A

RIFF   A                           
       Ne bi oni ni mrava zgazili,
       C
       oni nikad ne gaze mrave,
       F                      
       ali bi tebe unakazili,
       G          E       A
       ali bi tebi, dosli glave.

RIFF   A
       Da li je moguce da ne vidis nista,
       C
       jesi li ocoravio,
        F
       izadji malo iz dvorista,
       G     E     A
       zar si zaboravio?

RIFF            G             A
       Srbin je lud, Srbin je proklet.
                 G               A
       Jednom ga ubijes, on hoce opet.
                G             A
       Srbin je lud, Srbin je proklet.
                 G              A
       Jednom ga ubijes, on hoce opet.

RIFF
A                         F         G         A                    
------------------------------------------------------------------------
--------------------------------------------------17--15-17-15-13~-12-13
21--19-21-19-17~-16-17-16-14~-13-14-16~-14-16-17~-----------------------
------------------------------------------------------------------------
------------------------------------------------------------------------
------------------------------------------------------------------------

    F        G           A
-----------------------------
-12-10~-9-10-12~---13-12-10~-
-----------------9-----------   
-----------------------------
-----------------------------
-----------------------------


RIFF   C G A
   
RIFF   A   
       Zar su ti vrane mozak popile,
       C
       il' su ga dobro isprali,
       F
       onaj i ono Titovo kopile,
       G      E         A
       dzelati, a zrtve ispali.

RIFF   A
       Zivot kraj tebe protice,
       C
       Srbi u Evropi, je,
       F
       ali to te ne dotice,
          G     E         A
       ma nek se vrate krvopije.

RIFF            G             A
       Srbin je lud, Srbin je proklet.
                G              A
       Jednom ga ubijes, on hoce opet.
                G             A
       Srbin je lud, Srbin je proklet.
                G              A
       Jednom ga ubijes, on hoce opet.

SOLO + RIFF   A  F  G  A  (x4) 

RIFF            G             A
       Srbin je lud, Srbin je proklet.
                G              A
       Jednom ga ubijes, on hoce opet.
                G             A
       Srbin je lud, Srbin je proklet.
                G              A
       Jednom ga ubijes, on hoce opet.

RIFF
A                         F         G         A                          
-------------------------------------------------------------------------
--------------------------------------------------17--15-17-15-13~-12-13-
21--19-21-19-17~-16-17-16-14~-13-14-16~-14-16-17~------------------------
-------------------------------------------------------------------------
-------------------------------------------------------------------------
-------------------------------------------------------------------------
              
   F        G           A
----------------------------
12-10~-9-10-12~---13-12-10~-
----------------9-----------   
----------------------------
----------------------------
----------------------------

RIFF   C G A

     
***VERZIJA 2***
Transkripcija: V-A-M-P-I-R

UVOD:
e--12--10--12--10--8----------------------------------
b---------------------12--10----9--10--12----10--12--13
g-----------------------------------------------------

e--12--10--12--10--8--------------------------------------
b---------------------12--10----9--10--12----9--13--12--10
g---------------------------------------------------------

Ovo je moja verzija pjesme,nisam nikakve oznake stavljo,jer mislim 
da cete slusanjem pjesme sami skuziti gdje treba brze a gdje sporije


***VERZIJA 3***
Transkripcija: ???

Uvod :
------------------------------------------------------------------
------------------------------------------------------------------
---9--7--9---7-5-------4- 5--4----2--------1--2--4------2--4--5---
------------------------------------------------------------------
------------------------------------------------------------------
------------------------------------------------------------------

-------------------------------------------------------------
-----------17--15-17-15-13~-12-13-12-10~-9-10-12~---13-12-10-
------------------------------------------------9------------
------------------------------------------------------------- 
-------------------------------------------------------------
-------------------------------------------------------------