Riblja Corba - Sve I Svja

Transkripcija: Toma 3:16 (toma3_16@msn.com)


UVOD:
     Dm      A#           F               Dm      A#        F
-----------------------------------------------------------------
-----------------------------------------------------------------
-7-9-10--7-9-10--9^10^9-7-5--3-2-0----7-9-10--7-9-10--14-12-10-10
-----------------------------------3-----------------------------
-----------------------------------------------------------------
-----------------------------------------------------------------
       Dm        A#              F                      Dm        A#        F
---------------------------------------------------------------------17-15-13-13
15-17-18--15-17-18--17^18^17-15-13--11-10--------15-17-18--15-17-18-------------
------------------------------------------12-10---------------------------------
--------------------------------------------------------------------------------
--------------------------------------------------------------------------------
--------------------------------------------------------------------------------


Dm
Vreme je u fazi
          A#
Sporog proticanja,
               F
Medju nama kamenolom
A ne kamen spoticanja.

Dm
Svanulo je, a jos gori
      A#
Na natkasni lampa
              F
Oko mene pune piksle
I bajata stampa.

Dm
Potreban je melem
A#
Mocan i lekovit
F
Proteklo je vreme
A ja sam jos rovit.

Dm
Kao da ga neko
        A#
Otima i krade
                  F
Prebrzo smo stigli
Do kraja balade.


  G                       F
A nekad, a nekada bio sam ja
            G
Tvoje sve i svja,
  G                     F
A meni si bila i ostala ti
            G
Sve od ljubavi.


     Dm      A#           F               Dm      A#        F
-----------------------------------------------------------------
-----------------------------------------------------------------
-7-9-10--7-9-10--9^10^9-7-5--3-2-0----7-9-10--7-9-10--14-12-10-10
-----------------------------------3-----------------------------
-----------------------------------------------------------------
-----------------------------------------------------------------

Dm
Predajem se tebi
            A#
Na milost i nemilost
                  F
Kriv sam, a priori,
Ne postoji nevinost.

Dm
Neimovno odlazem,
          A#
Ocajnicke poteze povlacim
                     F
Da dobijem na vremenu,
Lazem, odugovlacim.

Dm
Pescani sat curi,
A#
Dan sve duze traje,
F
Sve sporije ide
I konacno staje.

Dm
Pomislim na tebe,
     A#
Onda duhom klonim
                F
Pijan i van sebe
U godine tonem.


  G                       F
A nekad, a nekada bio sam ja
            G
Tvoje sve i svja,
  G                     F
A meni si bila i ostala ti
            G
Sve od ljubavi.


SOLO:
--------------------------------------------------------------
----7------7----------------------7------7---10--10-12-12~-10~
-4----7-4----7-9---7-6-4--2----4----7-4----7------------------
--------------------------------------------------------------
--------------------------------------------------------------
--------------------------------------------------------------

----------------------------------------------
----7------7----------------------------------
-4----7-4----7-9---7-6-4--2----4----7--7-7~~--
----------------------------------------------
----------------------------------------------
----------------------------------------------

----14--------14-----------------------------14--------14----17~19-17-19-17-19-17-19~
12-----15-12-----15-17---15-14-12--10----12-----15-12-----15-------------------------
-------------------------------------------------------------------------------------
-------------------------------------------------------------------------------------
-------------------------------------------------------------------------------------
-------------------------------------------------------------------------------------

-----14--------14-------------------------------------------
-12-----15-12-----15-17---15-14-12--10---12-12----15-17-15~~
------------------------------------------------------------
------------------------------------------------------------
------------------------------------------------------------
------------------------------------------------------------

  G                       F
A nekad, a nekada bio sam ja
            G
Tvoje sve i svja,
  G                     F
A meni si bila i ostala ti
            G
Sve od ljubavi.
  G                       F
A nekad, a nekada bio sam ja
            G
Tvoje sve i svja,
  G                     F
A meni si bila i ostala ti
            G
Sve od ljubavi.