Riblja Corba - Tito Je Vas

Transkripcija: Nikola Kolarovic 


b - bend
r - release bend
~ - vibrato


Tema:
  G             C
E------------------------|------------------------|------------
H-------------3----------|-2b4r-0--2~~-2b4r-0--2~~|-2b4r-0--0~~
G-4-------------5~~~~~~--|------------------------|------------
D----5------5----------x3|------------------------|------------
A------5-----------------|------------------------|--poslednji-
E---------3--------------|------------------------|-----put----

     G
Drug Tito je bio svetli lik
Drug Tito je post'o spomenik
     C
Drug Tito nije bio ljudski stvor
     G
Drug Tito je im'o Beli dvor

Drug Tito je bio dobar drug
I nije on napravio dug
Drug Tito je im'o plavi voz
Drug Tito se zove Josip Broz

    G                A
Jer on je bio lovac, lovac ribolovac,
B                            C
Pijanista humanista i nikada onanista
Splavar, kravar, travar, Tito masin-bravar
Ranar, lekar, vidar i slobodni zidar

G       C
Tito je vas,
Tito je vas,
Tito je vas,
  F                                   C
a vi ste Titovi, i ja vam nisam za to kriv
a vi ste Titovi, i ja vam nisam za to kriv

Idemo drugovi 


Ja znam u kom grmu lezi zec
Pa idem u mali Kumrovec
Jer druga Tita i ostalu decu 
Radjaju u tom Kumrovecu
Drug Tito je nas najveci sin 
I nije on bio dusmanin
Na Neretvi bio diverzant
Na prstu je im'o brilijant

Jer on je bio lovac, lovac ribolovac,
Pijanista humanista i nikada onanista
Splavar, kravar, travar, Tito masin-bravar
Ranar, lekar, vidar i slobodni zidar

Tito je vas, Tito je vas, Tito je vas,
a vi ste Titovi, i ja vam nisam za to kriv
a vi ste Titovi, i ja vam nisam za to kriv
Tito je vas, Tito je vas, Tito je vas,
a vi ste Titovi, i ja vam nisam za to kriv

Korisceni akordi:

  G C A B F
E-3-0-0-1-1-
H-0-1-2-3-1-
G-0-0-2-3-2-
D-0-2-2-3-3-
A-2-3-0-1-3-
E-3-------1-


-----------------------------------------------------------
 Sve ispravke i dopune su dobrodosle! (nikolak@bigfoot.com)