Riblja Corba - Tu Nema Boga, Nema Pravde

Transkripcija: Toma 3:16 (toma3-16@wanadoo.fr & toma3_16@msn.com)


----------------------
----------------------
-6-4---4--------------
-----7---7-6-7-6------
-----------------7-9--
----------------------

fill 1: ---------------
        ---------------
        ---------------    x2
        ---4-----7^6~--
        ---------------
        -2---2-2-------

F#m (fill 1)
Zora rudi, dan se svetli, javljaju se prvi petli
D          E         C#m        F#m
Na pocinak kuci leti vestica na svojoj metli.

----------------
----------------
6~-4~-----------
------7-6-------
----------7-9---
----------------

fill 1  x2

F#m (fill 1)
Zivi bili, zivi bili imbecili i debili
D           E           C#m      F#m
Blago tebi, blago meni, unistice nas kreteni.

----------------
----------------
6~-4~-----------
------7-6-------
----------7-9---
----------------

RIFF  D       A          E
      Tu nema Boga, nema pravde
      D      A        E
      I zato odlazim odavde
      D        A       E
      I nas ce ko nase oceve

      E          C#m               
      Zbog visih ciljeva
      C#m       F#m            
      nabiti na kolceve.

----------------------
----------------------
-6-4---4--------------
-----7---7-6-7-6------
-----------------7-9--
----------------------

fill 1  x2

F#m (fill 1)
Ko god hoce ovde moze da hara i pustosi
D          E        C#m       F#m
Sve kilavi Radovani i nejaki Urosi.

----------------
----------------
6~-4~-----------
------7-6-------
----------7-9---
----------------

fill 1  x2

F#m (fill 1)
Dobar covek svako vece zabije mi noz duboko
D         E         C#m        F#m
Za veceru usi sece, za dorucak vadi oko.

----------------
----------------
6~-4~-----------
------7-6-------
----------7-9---
----------------

RIFF  D       A          E
      Tu nema Boga, nema pravde
      D      A        E
      I zato odlazim odavde
      D        A       E
      I nas ce ko nase oceve

      E          C#m               
      Zbog visih ciljeva
      C#m       F#m            
      nabiti na kolceve.


ZA VREME SOLO DRUGA GITARA IDE OVAKO (vise puta):
-------------------------------------------
-------------------------------------------
-------------------------------------------
--4-----4----5----5----2-----2----4-----4--
-------------------------------------------
2---2-2----3--3-3----0---0-0----2---2-2----


RIFF  D       A          E
      Tu nema Boga, nema pravde
      D      A        E
      I zato odlazim odavde
      D        A       E
      I nas ce ko nase oceve

      E          C#m               
      Zbog visih ciljeva
      C#m       F#m            
      nabiti na kolceve.

RIFF  D       A          E
      Tu nema Boga, nema pravde
      D      A        E
      I zato odlazim odavde
      D        A       E
      I nas ce ko nase oceve

      E          C#m               
      Zbog visih ciljeva
      C#m       F#m            
      nabiti na kolceve.

----------------------
----------------------
-6-4---4--------------
-----7---7-6-7-6------
-----------------7-9--
----------------------