Riblja Corba - U Dva Ce Cistaci Odneti Djubre

Transkripcija: Milan Milatovic
Poslao       : Luka Manojlovic (Luka.Manojlovic@guest.arnes.si)
Home         : The Book of Rock and Roll: Riblja Corba
 

Dm               C
Nocni program na radiju
  Bb            A
U kujni su bubasvabe
Dm            C
Voda kaplje u lavabo
Bb         C
Sve je ovo bilo dzabe.


F         Gm
Soba puna ocajanja
Bb         A
Nemam kuda ni da bezim
F         Gm
Dozivotno ista sranja
Bb          A
Pokraj tebe mrtav lezim.


  Bb        Am   Gm     F
U dva ce cistaci odneti dubre
  Bb     Am     Gm        F
U tri ce doneti jogurt i mleko
  Bb        Am        Gm  F
U sest ces krenuti na posao
  G A            Dm    C   Bb   A
U osam cu biti daleko.


Gledas osmeh na mom licu
Nemas pojma sta on krije
Poslacu ti razglednicu
Pozdrav iz Tunguzije.

Soba puna ocajanja
Nemam kuda ni da bezim
Dozivotno ista sranja
Pokraj tebe mrtav lezim.

U dva ce cistaci odneti dubre
U tri ce doneti jogurt i mleko
U sest ces krenuti na posao
U osam cu biti daleko.



***VERZIJA 2***
Transkripcija: VedranV

Dm C B A

|-5-4-3-5s0-----------|-10-9-10-8-10-8----------------|
|-6---------5---------|-10-------------10-8-10-10-8---|
|-7-----------7-5-7-5-|-10-------------------------9--|
|-7-------------------|-------------------------------|
|---------------------|-------------------------------|
|---------------------|-------------------------------|

 Dm    C
 Nocni program na radiju
 B          A
 u kujni su buba-svabe
 Dm            C
 Voda kaplje u lavabo
 B             A
 sve je ovo bilo dzabe

 F          Gm
 Soba puna ocajanja
 B             A
 nemam kuda ni da bezim
 F          Gm
 Dozivotno ista sranja
 B            A
 pokraj tebe mrtav lezim


   B      Am       Gm      F
U dva ce cistaci odneti djubre
   B      Am       Gm      F
U tri ce doneti jogurt i mleko
   B       Am      Gm   F
U sest ces krenuti na posao
  G A                  Dm C B A
U osam cu biti daleko.

 Gledas osmeh na mom licu,
 Nemas pojma sta on krije
 Poslacu ti razglednicu,
 Pozdrav iz Tunguzije

|-------------|---------|---------------------------------|---------|
|-10-9-8-10s0-|---------|-10-9-8--------------------------|---------|
|-------------|---------|--------11-10-9------------------|---------|
|-------------|-7--6s7-5|----------------12-11-10---------|-7--6s7-5|
|-------------|---------|-------------------------12-11-10|---------|
|-------------|---------|---------------------------------|---------|


***VERZIJA 3***
Transkripcija: Advokat (raleduca@ptt.yu)


uvod:
Dm            C           B           A        2x
e------1-----|-----0-----|-----1-----|--------|
B---3----3---|--1----1---|--3----3---|--2---2-|
G---2------2-|--0------0-|--3------3-|--2---2-|
D------------|-----------|-----------|--------|
A------------|-----------|-----------|--------|
E------------|-----------|-----------|--------|
 
solo 1:
e---5p4p3-5-----------13-12-10-9-10---------------------||
B------------6-6-5\-----------------10-9-10-11-10-------||
G-------------------------------------------------10-9\-||
D-------------------------------------------------------||
A-------------------------------------------------------||
E-------------------------------------------------------||

Dm               C
Nocni program na radiju
B               A
u kujni su buba-svabe
Dm            C 
voda kaplje u lavabo
B          A
sve je ovo bilo dzabe.
F         Gm
Soba puna ocajanja
B          A
nemam kuda ni da bezim
F         Gm
dozivotno ista sranja
B           A
pokraj tebe mrtav lezim.

Ref:B        Am      Gm     F
    U dva ce cistaci odneti djubre
    B        Am     Gm       F
    u tri ce doneti jogurt i mleko
    B          Am      Gm F 
    u sest ces krenuti na posao
      G A                 DmCBA
    u osam cu biti daleko.

solo 2:
e---------------------------------------------------------------------------|
B----------------------------------15-14-18-17-15-14-15-11-10-11-10-8-------|
G---7-9-10-12-13-14-14-14-13-15-14------------------------------------10-9\-|
D---------------------------------------------------------------------------|
A---------------------------------------------------------------------------|
E---------------------------------------------------------------------------|

Gledas osmeh na mom licu
nemas pojma sta on krije
poslacu ti razglednicu
pozdrav iz Tunguzije.
Soba puna ocajanja
nemam kuda ni da bezim
dozivotno ista sranja
pokraj tebe mrtav lezim.

Ref: U dva ce ...

solo 3: 
nisam skidao kad ga skinem poslacu, a ako neko to uradi pre mene neka mi posalje.
ovo mi je prvo slanje nekog mog "projekta", pa tako da sve kritike i pohvale primam
vrlo rado. Zamolio bi nekog "dzitrasa" boljeg od mene ako moze da skine i posalje
mi pesmu od Sase Vasica - Tezak sam na recima (ali u originalu sa tap. po gitari)!
                                                                   Hvala
                                                                   ##Advokat##