Riblja Corba - Valentino Iz Restorana

Transkripcija: Toma 3:16 (toma3-16@wanadoo.fr & toma3_16@msn.com)


INTRO I STROFI:
 G#    C G#  G#    C G#  G#    C G#  F# G#
-------------------------------------------
-------------------------------------------
---------------------------------(vise puta)
-------------------------------------------
-------3-----------3-----------3-----------
-4-4-4---4---4-4-4---4---4-4-4---4---2--4--

RIFF  G#
      Hej, Valentino iz restorana!
      F#         G#
      Neodoljivi matori jarce!
      G#
      Dal'ces i nocas do svog stana,
      F#                G#
      odvuci neko dobro parce?

 G#    C G#  G#    C G#  G#    C G#  F# G#
-------------------------------------------
-------------------------------------------
-------------------------------------------
-------------------------------------------
-------3-----------3-----------3-----------
-4-4-4---4---4-4-4---4---4-4-4---4---2--4--

RIFF  C#                G#
      Stavlja sve mucke mirise i kreme,
      F#                G#
      oblaci poslednjeg Iv Sen Lorana,
      C#              G#
      pazljivo ceslja celavo teme,
      F#                  D#
      krece u lov do restorana.

RIFF  C#              G#
      Verni sledbenik visoke mode,
      F#               G#
      s'manirom lava i mozgom vola,
      C#              G#
      sarmantno prica vesele zgode,
      F#                  D#
      i gurka nogom ispod stola.