Riblja Corba - Volim Volim Zene

Transkripcija: VedranV

 

Riff 1 >>>                Riff 2 >>>
|-----------------------| |----------------------------|
|-----------------------| |----------------------------|
|-----------------------| |----------------------------|
|-----------------------| |----5--------5----5---------|
|-0--3-0----------------| |----------------------------|
|---------3-3-2-3-2-3-4-| |-3----3---3-----3---3-3-4-5-|
 
 Riff 1
 Obicno izaberem visoku stenu
 s koje se pruza odlican pogled
 Kad na vidiku ugledam zenu
 obema rukama scepam dvogled.
 Riff 2
 I gledam ono sto dusa trazi
 gole drugarice na nudistickoj plazi.
 Prazno
 Neki sto teraju mak na konac,
 kazu mi da sam rasomonac!

Riff 3 >>>
|------------------------------------|
|------------------------------------|
|------------------------------------|
|-5--5--5--5--4--4-------------------|
|-3--3--3--3--2--2--0-----0----3--0--|
|----------------------3-------------|

 Riff3
 Volim volim volim volim zene,
 ali one malo manje vole mene.
 A5
 Zaljubim se pet-sest puta
 C5
 u roku od tri minuta.
 Riff 3
 Volim, volim, volim, volim zene.

 Kada ja dobru zensku vidim
 ja se u opste ne postidim.
 Pridem i kazem: 'Bicu kratak.
 Zenska imas strahovit batak.'
 Priznajem da bih mesao malter
 za jedan obican zenski brushalter.
 Ja bih se odrek'o rodene brace
 za jedne cipkane zenske gace!

 Kupujem strucnu literaturu
 za malu nocnu fiskulturu.
 Reporter, Lui, Playboy, Star
 uzmem kvalitet odbacim skart.
 Pa k'o tapete lepim po zidu
 tek da ih imam sve u vidu.
 Guzate, sisate, lomne u struku
 zbog njih razvijam desnicu ruku.

*** Na jednoj live snimci 
koju sam cuo riff1 zvuci ovako >>>

|---------------------|-----|
|---------------------|-----|
|---------------------|-----|
|----4-------4--------|-----|
|-3----3--2----2-0-0--|-3-0-|
|---------------------|-----|

***VERZIJA 2***
Transkripcija: ????
Poslao       : Marko (lade@bendroz.ca)


A
Obicno izaberem visoku stenu,
s koje se pruza odlican pogled,
kad na vidiku ugledam zenu,
obema rukama scepam dvogled,
i gledam ono sto mi dusa trazi,
gole drugarice na nudistickoj plazi,
neki sto teraju mak na konac,
kazu mi da sam rasomonac!

     C             G            Am
REF: Volim, volim, volim, volim zene,
     C            G           Am
     ali one malo manje vole mene,
     Am        
     zaljubim se pet-sest puta,
     C
     u roku od tri minuta,
     C             G            Am
     volim, volim, volim, volim zene.
 

A
Kada ja dobru zensku vidim.
ja se uopste ne postidim,
pridjem i kazem:"Bicu kratak,
zanska imas strahovit batak"
Priznajem da bih mesao malter,
za jedan zenski brushalter,
ja bih se odrekao rodjene brace,
za jedne zenske cipkaste gace!


A
Kupujem strucnu literaturu,
za malu nocnu filskuturu.
"Reporter", "Lui", "Playboy", "Start",
uzmem kvalitet, odbacim skart,
pa k'o tapete lepim po zidu,
tek da ih imam sve u vidu,
guzate, sisate, lomne u struku,
zbog njih razvijam desnicu ruku.