Riblja Corba - Vrlo, Vrlo Zadovoljan Tip

Transkripcija: Aca Urosevic - Aca_Urosevic@yahoo.com



Uvodni rif(koji se posle provlaci kroz celu pesmu):
   E
E------------------------------------------|
H------------------------------------------|
G------------------------------------------|
D----------2---------2---------2---------2-|
A--2-2-1s2---2-2-1s2---2-2-1s2---2-2-1s2---|
E--0-0-------0-0-------0-0-------0-0-------|

E
Pred sobom vidim perspektivu,
  Gis              Cism A
buducnost svetlu i le...PU!
E
Imam rupu na cipeli
  Gis            Cism  A
I veliko nista u dze...PU!

Fali mi koja daska u glavi,
Fali mi jedno dugme na slicu,
Al' zato imam novu ideju
I jednu polovnu ljubavnicu...
   
   Fism            E                
Ja imam talenta za spavanje (DA!)
  Fism        E
Visak srca za davanje (DA!)
    Fism        E
Organe za razmnozavanje (Daaaaaa...)

Motiv za usitnjavanje (DA!)
Noge za provetravanje (DA!)
Dobar sam za izbegavanje (DA!!!)

Ref:
A
Imam mladez na levoj strani
E
Naizgled odlicno a imam i grip,
A
Jos sam kod mame i tate na hrani
       E 
Ja sam vrlo, vrlo zadovoljan tip, pa da!
       Fism                 E
Ja sam vrlo vrlo zadovoljan tip.

Imam bubuljicu na nezgodnom mestu,
Jeftin sam kao procitan strip!
Pokvarenu mastu i prljave strasti
Ja sam vrlo, vrlo zadovoljan tip,
Ja sam vrlo, vrlo zadovoljan tip!

Solo(opet uz malo moje improvizacije):
   E                                      Gis            Cism A  
E-----------------------------------------------12----------------|
H--------------------12-------12----------12^14-----12/\----------|
G--11s12-12-13-12-13----11^13----11/\--------------------11/\-----|
D-------------------------------------14----------------------14~-|
A-----------------------------------------------------------------|
E-----------------------------------------------------------------|

   E
E---------------16s14-12--------------
H-----------12-----------12^14-14-12--
G--11-12-13---------------------------
D-------------------------------------
A-------------------------------------
E-------------------------------------

      Gis                      Cism               A                  E 
E--------12-----------------------12-----------------12-----------------|
H--12^14----14-12-------12--12^14----14-12-------s12----14-12-----------|
G-----------------14-13--------------------14-13--------------14-13-----|
D--------------------------------------------------------------------14-|
A-----------------------------------------------------------------------|
E-----------------------------------------------------------------------|

   E
E------------------|
H------------------|
G--13-12-11--9~~~~-|(ovo sam skin'o sa klavira.Moze, ali i ne mora)
D------------------|
A------------------|
E------------------|

Objasnjenje:
s-slide
^-hammer on ili pull off
/\-bend/release(zavijanje)
~-vibrato


***VERZIJA 2***
Transkripcija: Milan Milatovic
Home         : The Book of Rock and Roll: Riblja Corba



     E
Pred sobom vidim perspektivu
  G#               C#m  A
Buducnost svetlu i lepu
E
Imam rupu na cipeli
  G#             C#m  A
I veliko nista u dzepu.


Fali mi koja daska u glavi
Fali mi jedno dugme na slicu
Al' zato imam novu ideju
I jednu polovnu ljubavnicu.


F#m              E
Imam talenta za spavanje
F#m           E
Visak srce za davanje
  F#m           E
Organe za razmnozavanje.
Motiv za usvinjavanje
Noge za provetravanje
Dobar sam za izbegavenje.


A
Imam mladez na levoj strani
E
Na jesen obicno imam i grip
A
Jos sam kod mame i tate na hrani
       E
Ja sam vrlo, vrlo zadovoljan tip
             F#m                   E
O da, ja sam vrlo, vrlo zadovoljan tip.


Imam bubuljicu na nezgodnom mestu
Jeftin sam kao procitan strip
Pokvarenu mastu i prljave strasti
Ja sam vrlo, vrlo zadovoljan tip
O da, ja sam vrlo, vrlo zadovoljan tip.